Your Ex Marked My Spot by A Lot Like Birds

Your Ex Marked My Spot tab by A Lot Like Birds

Intro

"I'm standing here in pieces, and you're having delusions of grandeur..."

Intro & 3:02:

e|---------9-----------------9--------|-----5h7---5p0---(5)h7-5p0---4h5p4--|
B|-----------10-9-10-----------10-9-10|----------------------------------5-|
G|-7-7-9-7-----------7-7-9-7----------|-7-7-----------7-----------7--------|
D|------------------------------------|------------------------------------|
A|------------------------------------|------------------------------------|
E|------------------------------------|------------------------------------|

e|----------7p0-------------5p0---5-|-p0---------5p0-----------------------|
B|------7-------7p0-----7-------7---|----9p0-5p0-----9p0-5p0-----7---------|
G|-/6-6---6---------6-6---6---------|------------------------6-6---6-------|
D|----------------------------------|--------------------------------------|
A|----------------------------------|--------------------------------------|
E|----------------------------------|--------------------------------------|

e|---------2p0-------------2p0---2-|-p0-------0---0---0---0---0---0--------|
B|-----4-------4p0-----4-------4---|----4p0-2---2---4---4---5---5----------|
G|-4-4---4---------4-4---4---------|---------------------------------------|
D|---------------------------------|---------------------------------------|
A|---------------------------------|---------------------------------------|
E|---------------------------------|---------------------------------------|


************************************

h - hammer on
p - pull off
() - ghost note

Find guitar tabs and chords

A B C D E F G H I J K L M N O P Q R S T U V W X Y Z #