Log in

One click and you are in

Login with Facebook Login with Google

Why sign up and log in

Guitar Tabs Explorer
A-ha bass tabs for The way we talk

Bass tabs

Tuning: Standard tuning


Tabbed by: bassm99
E-mail: alanmatthews1966@yahoo.co.uk
Tuning: E, A, D, G


Intro:

G|----------------------------------------------------------------------------|
D|--7-77-10------5-7-77-10----------7-77-10--------7--10----------------------|
A|----------5-55-----------5-777------------5--55--------7-5------------------|
E|----------------------------------------------------------------------------|


Verse: (Play Twice)

G|----------------------------------------------------------------------------|
D|--7-77-10------5-7-77-10----------------------------------------------------|
A|----------5-55-----------5-777----------------------------------------------|
E|----------------------------------------------------------------------------|


Chorus:

G|----------------------------------------------------------------------------|
D|-----------5--7-----77--7---------------------------------------------------|
A|--5--7--8-------------------------------------------------------------------|
E|----------------------------------------------------------------------------|

Piano Solo: (Play Twice)

G|----------------------------------------------------------------------------|
D|--7-77-10------5-7-77-10----------------------------------------------------|
A|----------5-55-----------5-777----------------------------------------------|
E|----------------------------------------------------------------------------|

Repeat Chorus:

End:

G|----------------------------------------------------------------------------|
D|-----------5--7-------------------------------------------------------------|
A|--5--7--8-------------------------------------------------------------------|
E|----------------------------------------------------------------------------|

The Way We Talk bass tab

A-ha bass tabs for The way we talk

Redigert tekst

Bass tabs for "The Way We Talk" from the a-ha album "East Of The Sun, West Of The Moon" (1990). Song is written by Magne Furuholmen.

Almost there ...

Sign in to get your own page with links to favourite songs and more. You are just one click away...

Login with Facebook Login with Google