Log in

One click and you are in

Login with Facebook Login with Google

Why sign up and log in

Guitar Tabs Explorer
A-ha guitar tabs for Take on me acoustic

Guitar tabs

  • Capo on 2nd
Tuning: Standard (E A D G B E)

Difficulty: Intermediate


Intro:
    A chord diagramA minorAm            A chord diagramD/F#D/F#             A chord diagramG MajorG                A chord diagramC majorC            Gadd11/B
e|-----------------------2--------------------------------------------------------|
B|--------1-0-1----------3-3-------------0----------------1------------1----------|
G|------2-2-2-2----------2---2-----------0-0------------0------------0------------| x2
D|----2---------------0--------0-------0-----0--------2------------0--------------|
A|--0---------------0----------------2---------2----3------------2----------------|
E|----------------2----------------3----------------------------------------------|

Verse:
    A chord diagramA minorAm            A chord diagramD/F#D/F#             A chord diagramG MajorG                A chord diagramC majorC            Gadd11/B
e|-----------------------2--------------------------------------------------------|
B|--------1-0-1----------3-3-------------0----------------1------------1----------|
G|------2-2-2-2----------2---2-----------0-0------------0------------0------------| x3
D|----2---------------0--------0-------0-----0--------2------------0--------------|
A|--0---------------0----------------2---------2----3------------2----------------|
E|----------------2----------------3----------------------------------------------|


Chorus:
   A chord diagramG MajorG           A chord diagramB minorBm           A chord diagramE minorEm         A chord diagramD MajorD          A chord diagramG MajorG         A chord diagramB minorBm       A chord diagramE minorEm       A chord diagramC majorC
e|-3-----------2------------0------------2--------3---------2--------0--------0-----|
B|-3---3-------3---3--------0---0--------3-3------3---3-----3---3----0---0----1---1-|
G|-0--0-0------4--4-4-------0--0-0------2---------0--0-0----4--4-4---0--0-0---0--0--|
D|---0---0-------4---4--------2---2----0------------0---0-----4---4----2---2----2---|
A|-------------2------------2-------------------------------2--------2--------3-----|
E|-3----------------------------------------------3---------------------------------|

    A chord diagramG MajorG         A chord diagramB7B7        A chord diagramE minorEm        A chord diagramC majorC                 A chord diagramG MajorG        A chord diagramD MajorD        A chord diagramC majorC        A chord diagramD MajorD
e|--3---------2---------0---------0-----------------3--------2--------0---------2---|
B|--3---3-----0---0-----0---0-----1---1-------------3---3----3---3----1---1-----3---|
G|--0--0-0----2--2-2----0--0-0----0--0-0------------0--0-0---2--2-2---0--0-0—0h2----|
D|----0---0-----1---1-----2---2-----2---2-------------0---0----0---0----2-----------|
A|------------2---------2---------3--------------------------0--------3-------------|
E|--3-----------------------------------------------3-------------------------------|


Interlude:
    A chord diagramA minorAm        A chord diagramD MajorD             A chord diagramG MajorG            A chord diagramC majorC    A chord diagramC majorC
e|----------------2-2-3-5---3-3-3--------0----0-------0--------------------|
B|--1---1-----3-3-----------3-----3---1--1----1--3--3---3------------------|
G|--2--2-2----2-------------0------------0----0----------------------------| x3
D|----2--------------------------------------------------------------------|
A|--0---------0--------------------------3----3----------------------------|
E|--------------------------3----------------------------------------------|


Last Chorus – Same pattern as above using the following

A chord diagramG MajorG   A chord diagramB minorBm  A chord diagramE minorEm  A chord diagramD MajorD    //    A chord diagramG MajorG  A chord diagramB minorBm  A chord diagramE minorEm  A chord diagramC majorC   //    A chord diagramG MajorG  A chord diagramB7B7  A chord diagramE minorEm  A chord diagramC majorC    //   A chord diagramG MajorG  A chord diagramB minorBm  A chord diagramE minorEm  A chord diagramC majorC   //  A chord diagramG MajorG  A chord diagramB7B7  A chord diagramE minorEm  A chord diagramC majorC

A chord diagramG MajorG  A chord diagramB minorBm  A chord diagramE minorEm  A chord diagramC majorC  //  A chord diagramG MajorG  A chord diagramB minorBm  A chord diagramC majorC  A chord diagramD MajorD

Other versions of Take On Me Acoustic

Take on MeChords
Take on Me (Ver. 2)Chords
Take on Me (Ver. 3)Chords
Take on Me AcousticChords
Take on Me - IntroTabs
Take on Me Acoustic (Ver. 2)Tabs

↓ Add and view comments below ↓

What do you think about this song and these tabs?

Add your comments, questions, rant or a thumbs up below.

Almost there ...

Sign in to get your own page with links to favourite songs and more. You are just one click away...

Login with Facebook Login with Google