Log in

One click and you are in

Login with Facebook Login with Google

Why sign up and log in

Guitar Tabs Explorer
A C Acoustics tabs for Ex quatermaster

Guitar tabs with lyrics

A chord diagramA augmentedA lovely song by A.C. Acoustics.
It's hard to find stuff about them in the net since
they have splitted.
http://www.cookingvinyl.com/ac_acoustics/index.php
here is their last lable if you are intrested.
Enjoy
Intro
|-------------------------------|
|-------------------------------|
|-------------------------------|
|-2-2-2-2-2-2-11-11-11-11-11-11-|X2
|-2-2-2-2-2-2-11-11-11-11-11-11-|
|--------------9--9--9--9--9--9-|


|------------------------------------------------------------|
|------------------------------10-9--------------------------|
|--------------11---11--------------9--------------11---11---|
|-9S11\-9-9h11----9----9S11\-9--------9S11\-9-9h11----9----9-|(A chord diagramA augmentedA)
|------------------------------------------------------------|
|------------------------------------------------------------|

                                     (A chord diagramBB)
|--------------|-----|-----------------------|----------------------|
|--------------|-----|-----------------------|----------------------|
|--------------|-----|-----------------------|-7s9s11s13s11-8-6-6-8-|
|-6------------|-(A chord diagramA augmentedA)-|-6---------------11-14-|----------------------|
|---9-9-7-7S12-|-----|---9-9-7-7S12S14-------|----------------------|
|--------------|-----|-----------------------|----------------------|


|------------------------------|-----|-----------------------------------|
|------------------------------|-----|------------------10s9-------------|
|-6-6-7s9s11s13s11-8-6-6-8-6-6-|-----|---11-9h11p9-------------11-9s11s9-|
|------------------------------|-(A chord diagramBB)-|-9-----------9-11------9-----------|
|------------------------------|-----|-----------------------------------|
|------------------------------|-----|-----------------------------------|

|--------------------|---------------------------------------------|
|--------------------|------------------10s9-----------------------|
|----------11---11---|---11-9h11p9-------------11-9h11p9------9----|
|-9-11-7S9----9----9-|-9-----------9-11------9-----------9-11---11-|
|--------------------|---------------------------------------------|
|--------------------|---------------------------------------------|

|-------------------|------|-----------------------------------|
|-------------------|------|-----------------------------------|
|----11-11-11-11-11-|------|-----------------------------------|
|-2--11-11-11-11-11-|-(X3)-|-----------------9-----------------|
|-2---9--9--9--9--9-|------|-9-11-11-11-9h11---11-9-11-11-9-11-|
|-------------------|------|-----------------------------------|


|----------------------------------|
|----------------------------------|
|----------------------------------|
|-----------------9----------------|
|-9-11-11-11-9-11---11-9-11-11-9---|
|--------------------------------7-|


|---------------------------------|---------------------------------------|
|---------------------------------|---------------------------------------|
|---------------------------------|---------------------------------------|
|-19-19-19-19-19-19-18-18-18-18-0-|-16-16-16-14-14------------------------|
|---------------------------------|----------------16-16-16-14-14-0\------|
|---------------------------------|---------------------------------------|

This is all. If you want info mail me at
mr_gredy@yahoo.com
I can add lyrics too if you want.
Tabbed by RoB


Tablature 🏷Legend
----------------
 h   - hammer-on
 p   - pull-off
 b   - bend
 pb  - pre-bend
 r   - bend release (if no number after the r, then
release immediately)
 /\  - slide into or out of (from/to "nowhere")
 s   - legato slide
 S   - shift slide
<n>  - natural harmonic
[n]  - artificial harmonic
n(n) - tapped harmonic
 ~   - vibrato
 tr  - trill
 T   - tap
 TP  - trem. picking
 PM  - palm muting
\n/  - tremolo bar dip; n = amount to dip
 \n  - tremolo bar down
 n/  - tremolo bar up
/n\  - tremolo bar inverted dip
 =   - hold bend; also acts as connecting device for
hammers/pulls
 <>  - volume swell (louder/softer)
 x   - on rhythm slash represents muted slash
 o   - on rhythm slash represents single note slash


* Generated using Power Tab Editor by Brad Larsen -

Almost there ...

Sign in to get your own page with links to favourite songs and more. You are just one click away...

Login with Facebook Login with Google