Log in

One click and you are in

Login with Facebook Login with Google

Why sign up and log in

Guitar Tabs Explorer
A C Acoustics tabs for Dry salvage

Guitar tabs with lyrics

Band: A.c. Acoustics

Tuning: Normal


Intro

|--------------------------------------|
|--------------------------------------|
|-----8-9-8--------9-------------------|
|---9-------9s9-11---11-9-11-9---------|
|-7----------------------------11-9----|
|--------------------------------------|


|------------------------------|
|------------------------------|
|---------------------6--------|
|---6-7-6---------9-----9-9----|(00:10)
|-7-------7---7-7---7----------|
|-----------9------------------|


|-------------------------------------------------|
|--10-9-10-5-----5--------------------------------|
|------------6-----6---5-------9-7------7---------|
|--------------7-----7---7-5-7-----9------9-------|
|------------------------------------10-----10----|(00:48)
|-------------------------------------------------|


|------------------------------------------------------|
|-12-10-10-9-10-5-----5--------------------------------|
|-----------------6-----6---5-------9-7------7---------|
|-------------------7-----7---7-5-7-----9------9-------|
|-----------------------------------------10-----10----|(00:58)
|------------------------------------------------------|

|--------------------------------------------------------------|
|--------------------------------------------------------------|
|--------------------------------------------------------------|
|-12-12-12-11-12-11-5-5-5-5-5-5-5-2-2-2-2-2-2-2----------------|
|-12-12-12-11-12-11-5-5-5-5-5-5-5-2-2-2-2-2-2-2-(many
times)---|(02:14)
|-10-10-10--9-10--9-3-3-3-3-3-3-3-0-0-0-0-0-0-0----------------|


|--------------------------------|
|---------7----------------------|
|---7---7---7-----------6--------|
|-7---7-------7---7---7---7------|
|---------------7---7-------7----|(02:36)
|--------------------------------|


|--------------------------------|
|--------------------------------|
|---------7-------------4--------|
|---4---4---4-----5---5---5------|
|-5---5-------5------------------|(02:42)
|---------------3---3-------3----|


|----------------------|
|----------------------|
|-12s14s19s17s12s14----|
|-12s14s19s17s12s14----|
|-12s14s19s17s12s14----|(02:57)
|----------------------|


|----------------------------------|
|----------------------------------|
|----------------------------------|
|-12-12-14-12-14-12-12-14-12-------|
|----------------------------12----|(03:20)
|----------------------------------|


|-------------------------------------|
|-------------------------------------|
|----------------7--------------------|
|-12-12-14-12-14---9-7-7-7-9-7-7-7----|
|-------------------------------------|(03:15)
|-------------------------------------|


|------|------------|
|------|------------|
|-14s/-|--------14s\|
|-14s/-|(03:49)-14s\|(04:41)
|-14s/-|--------14s\|
|------|------------|

Tabbed by RoB


Tablature 🏷Legend
----------------
 h   - hammer-on
 p   - pull-off
 b   - bend
 pb  - pre-bend
 r   - bend release (if no number after the r, then
release immediately)
 /\  - slide into or out of (from/to "nowhere")
 s   - legato slide
 S   - shift slide
<n>  - natural harmonic
[n]  - artificial harmonic
n(n) - tapped harmonic
 ~   - vibrato
 tr  - trill
 T   - tap
 TP  - trem. picking
 PM  - palm muting
\n/  - tremolo bar dip; n = amount to dip
 \n  - tremolo bar down
 n/  - tremolo bar up
/n\  - tremolo bar inverted dip
 =   - hold bend; also acts as connecting device for
hammers/pulls
 <>  - volume swell (louder/softer)
 x   - on rhythm slash represents muted slash
 o   - on rhythm slash represents single note slash


* Generated using Power Tab Editor by Brad Larsen -
http://powertab.guitarnetwork.org *

Almost there ...

Sign in to get your own page with links to favourite songs and more. You are just one click away...

Login with Facebook Login with Google