Log in

One click and you are in

Login with Facebook Login with Google

Why sign up and log in

Guitar Tabs Explorer
94stones guitar tabs for Jojos bizarre adventure - giornos theme

Jojos Bizarre Adventure - Giornos Theme tab by 94stones

94stones guitar tabs for Jojos bizarre adventure - giornos theme

Guitar tabs

Tuning: Standard (E A D G B E)


Intro:

Riff Guitar
E|----------------------------------------------------------------------------|
B|----------------------------------------------------------------------------|
G|----------------------------------------------------------------------------|
D|-----------------------------3-2-0---------------------------------3-2-0----|
A|-2-2-2p0-2-5-2---0-2-2-2p0-2-------0-2-2-2p0-2-5-2---0-2-2-2p0h2-5-------0--|
E|---------------2-----------------------------------2------------------------|

E|-------------------------------------------------------------------------|
B|-------------------------------------------------------------------------|
G|-------------------------------------------------------------------------|
D|-----------------------------3-2-0---------------------------------------|
A|-2-2-2p0-2-5-2---0-2-2-2p0-2-------0-2-2-2p0-2-5-2---0-2-2-2-0-2---------|
E|---------------2-----------------------------------2---------------------|

Octave Guitar
E|---------------------------------------------------------------------|
B|---------------------------------------------------------------------|
G|-----------7-----------------10-9-7-------------7--------------------|
D|-9-9-9p7-9---9---7-9-9-9p7-9--------7-9-9-9p7-9---9---7-9-9-9-7-9----|
A|---------------9------------------------------------9----------------|
E|---------------------------------------------------------------------|


Band Intro:

Riff Guitar
E|----------------------------------------------------------------------------|
B|----------------------------------------------------------------------------|
G|----------------------------------------------------------------------------|
D|-----------------------------3-2-0---------------------------------3-2-0----|
A|-2-2-2p0-2-5-2---0-2-2-2p0-2-------0-2-2-2p0-2-5-2---0-2-2-2p0h2-5-------0--|
E|---------------2-----------------------------------2------------------------|

E|-------------------------------------------------------------------------|
B|-------------------------------------------------------------------------|
G|-------------------------------------------------------------------------|
D|-----------------------------3-2-0---------------------------------------|
A|-2-2-2p0-2-5-2---0-2-2-2p0-2-------0-2-2-2p0-2-5-2---0-2-2-2-0-2---------|
E|---------------2-----------------------------------2---------------------|

Octave Guitar
E|------------------------------------------------------------------------------|
B|------------------------------------------------------------------------------|
G|-----------7-----------------10-9-7-------------7-----------------7-10-9-7----|
D|-9-9-9p7-9---9---7-9-9-9p7-9--------7-9-9-9p7-9---9---7-9-9-9p7h9----------7--|
A|---------------9------------------------------------9-------------------------|
E|------------------------------------------------------------------------------|

E|---------------------------------------------------------------------|
B|---------------------------------------------------------------------|
G|-----------7-----------------10-9-7-------------7--------------------|
D|-9-9-9p7-9---9---7-9-9-9p7-9--------7-9-9-9p7-9---9---7-9-9-9-7-9----|
A|---------------9------------------------------------9----------------|
E|---------------------------------------------------------------------|

Lead Guitar
E|----------------10-------------------------13-12-10-----|
B|-12-12-12p10-12----12----10-12-12-12p10-12----------10--|
G|----------------------11--------------------------------|
D|--------------------------------------------------------|
A|--------------------------------------------------------|
E|--------------------------------------------------------|

E|----------------10-------------------------10-13-12-10-----|
B|-12-12-12p10-12----12----10-12-12-12p10h12-------------10--|
G|----------------------11-----------------------------------|
D|-----------------------------------------------------------|
A|-----------------------------------------------------------|
E|-----------------------------------------------------------|

E|----------------10--------------------------------|
B|-12-12-12p10-12----12----10-12-12-12-10-12--------|
G|----------------------11--------------------------|
D|--------------------------------------------------|
A|--------------------------------------------------|
E|--------------------------------------------------|

Rhythm Guitar 1
E|------------------------------------------------------------------|
B|------------------------------------------------------------------|
G|------------------------------------------------------------------|
D|-9-9-9-9-9-9-9-9-7-7-7-7-7-7-7-7-6-6-6-6-6-6-6-6-7-7-7-7-7-7-7-7--|
A|------------------------------------------------------------------|
E|-7-7-7-7-7-7-7-7-5-5-5-5-5-5-5-5-4-4-4-4-4-4-4-4-5-5-5-5-5-5-5-5--|

E|---------------------------------------------------------|
B|---------------------------------------------------------|
G|---------------------------------------------------------|
D|-9-9-9-9-9-9-9-9-7-7-7-7-7-7-7-7-6-6-6-6-6-6-6-7---------|
A|---------------------------------------------------------|
E|-7-7-7-7-7-7-7-7-5-5-5-5-5-5-5-5-4-4-4-4-4-4-4-5---------|

Rhythm Guitar 2
E|-----------------------------------|
B|-----------------------------------|
G|-4-4-4-4-4-4-4-4-4-4-4-4-4-7-9-9---|
D|-4-4-4-4-4-4-4-4-4-4-4-4-4-7-9-9---| X3
A|-2-2-2-2-2-2-2-2-2-2-2-2-2-5-7-7---|
E|-----------------------------------|

E|------------------------|
B|------------------------|
G|-4-4-4-4-4-4------------|
D|-4-4-4-4-4-4------------|
A|-2-2-2-2-0-2------------|
E|------------------------|


Verse 1:
Lead Guitar
E|----------------------------------------------------------------------|
B|--------------------10-9-----------------------------10-9-10-12-9-----|
G|---------9-11------------11-9-11-----------9-11-------------------11--|
D|-9-11-12--------9-12---------------9-11-12-------9-12-----------------|
A|----------------------------------------------------------------------|
E|----------------------------------------------------------------------|

E|-----------------------------------------------------------------|
B|------------------10-9----------------------------10-12-10-9-----|
G|--------9-11-----------11-9-11----------9-11-----------------11--|
D|-9-11-12------9-12---------------9-11-12------9-12---------------|
A|-----------------------------------------------------------------|
E|-----------------------------------------------------------------|

Harmony Guitar
E|-----------14-12-----------------------14-16-14-12------|
B|-15--12-15--------15-14-15---15--12-15-------------15---|
G|--------------------------------------------------------|
D|--------------------------------------------------------|
A|--------------------------------------------------------|
E|--------------------------------------------------------|

Rhythm Guitar
E|------------------------------------------------------------------------------|
B|------------------------------------------------------------------------------|
G|-----------2---2-2-3-4-4-3-2----------------------2---2-2-3-4-----------------| X4
D|---0-2-3-4---4---------------4-2----------0-2-3-4---4-------------------------|
A|-2--------------------------------------2---------------------2-0-1-2---------|
E|----------------------------------4-5-6--------------------------------4-5-6--|
pm . . . . . . . . . . . . . . . . . . . . . . . . . . . . . . . . . . . . .


Interlude:
Lead Guitar
E|------------------------------------------------------------------------|
B|-3p2---------------------3p2-----------2h3-2----3p2---------------------|
G|-----2-2h4-4--2h4-4b-2-4-----2-2h4-4--------2------2-2h4-4--2h4-4b-2-4--|
D|-------------4-----------------------4-------2------------4-------------|
A|------------------------------------------------------------------------|
E|------------------------------------------------------------------------|

E|----------2------5-4-2-----------------------------|
B|-3p2----3---5-4--------3-2-0--------------------3--|
G|----2-2--------4-------------2h4-2h4-2h4-2h4-2h4---|
D|---------------------------------------------------|
A|---------------------------------------------------|
E|---------------------------------------------------|


Chorus:
Lead Guitar
E|----------------------------------------------------------------|
B|--------------------------------------12-----------10-8-7-------|
G|--------9-11--7--7-9-10-9-7-6-7-9-11------4h6-7b-6---------7----|
D|-9-11-12--------------------------------------------------------|
A|----------------------------------------------------------------|
E|----------------------------------------------------------------|

E|-------------------------------------------10-------|
B|----------------------12--12-14-15-----------10-12--|
G|-7-9-10-9-7-6-7-9-11---------------12-11-10---------|
D|----------------------------------------------------|
A|----------------------------------------------------|
E|----------------------------------------------------|

Rhythm Guitar
E|-----------------------------------|
B|-----------------------------------|
G|-----------------------------------|
D|-9-------6-6-----11-11-11-4-4-4----| X4
A|-9-------6-6-6-8-11-11-11-4-4-4----|
E|-7-7-7-7-4-4-4-6-9--9--9--2-2-2----|
pm   . . .     . .

E|------------------------|
B|------------------------|
G|------------------------|
D|-9----------------------|
A|-9----------------------|
E|-7----------------------|


Riff:

Riff Guitar
E|----------------------------------------------------------------------------|
B|----------------------------------------------------------------------------|
G|----------------------------------------------------------------------------|
D|-----------------------------3-2-0---------------------------------3-2-0----|
A|-2-2-2p0-2-5-2---0-2-2-2p0-2-------0-2-2-2p0-2-5-2---0-2-2-2p0h2-5-------0--|
E|---------------2-----------------------------------2------------------------|

E|-------------------------------------------------------------------------|
B|-------------------------------------------------------------------------|
G|-------------------------------------------------------------------------|
D|-----------------------------3-2-0---------------------------------------|
A|-2-2-2p0-2-5-2---0-2-2-2p0-2-------0-2-2-2p0-2-5-2---0-2-2-2-0-2---------|
E|---------------2-----------------------------------2---------------------|

Octave Guitar
E|------------------------------------------------------------------------------|
B|------------------------------------------------------------------------------|
G|-----------7-----------------10-9-7-------------7-----------------7-10-9-7----|
D|-9-9-9p7-9---9---7-9-9-9p7-9--------7-9-9-9p7-9---9---7-9-9-9p7h9----------7--|
A|---------------9------------------------------------9-------------------------|
E|------------------------------------------------------------------------------|

E|---------------------------------------------------------------------|
B|---------------------------------------------------------------------|
G|-----------7-----------------10-9-7-------------7--------------------|
D|-9-9-9p7-9---9---7-9-9-9p7-9--------7-9-9-9p7-9---9---7-9-9-9-7-9----|
A|---------------9------------------------------------9----------------|
E|---------------------------------------------------------------------|


Solo:
Lead Guitar
E|-14----------------------------------------------------------|
B|-17b--17br-15-17-14------------------------------------------|
G|-------------------14----16-14-------------------------------|
D|---------------------16--------14-12-----12-14--12-12--12----|
A|-------------------------------------14--------------14--14--|
E|-------------------------------------------------------------|

E|------------------------------------------------------------|
B|-------------15-17-19----17-19-20b--17p15---15-17-----------|
G|-/16-14----14----------19----------------16-----------------|
D|--------16--------------------------------------------------|
A|------------------------------------------------------------|
E|------------------------------------------------------------|

E|-----------------------------------------------------|
B|-15--15-15--15-15--15-15--15-15--17--17p15---15------|
G|------------------------------------------16---16----|
D|-----------------------------------------------------|
A|-----------------------------------------------------|
E|-----------------------------------------------------|

E|-17--17---16-----------------------------------------------------------------|
B|-20b-20b--19b--19br-p17-19b-19--15p14-15p14-15p14-15-14-15p14-15p14-15p14-15-|
G|-----------------------------------------------------------------------------|
D|-----------------------------------------------------------------------------|
A|-----------------------------------------------------------------------------|
E|-----------------------------------------------------------------------------|

E|-/22-22--19-17------------------------------19h21b--|
B|---------------17p15-------------15h17/19-22--------|
G|---------------------16-14-16--16-------------------|
D|----------------------------------------------------|
A|----------------------------------------------------|
E|----------------------------------------------------|

E|---------------------------------------14-13p12h13-14---|
B|-------------------------7p6-7-12-14-15-----------------|
G|------------------4-6-7-8-------------------------------|
D|-----------4-3-4----------------------------------------|
A|-///-2-4-5----------------------------------------------|
E|-///----------------------------------------------------|

Rhythm Guitar
E|-----------------------------------------------------------------------------|
B|-----------------------------------------------------------------------------|
G|-----------2---2-2-3-4-4-3-2----------------------2---2-2-3-4----------------| X4
D|---0-2-3-4---4---------------4-2----------0-2-3-4---4------------------------|
A|-2--------------------------------------2---------------------2-0-1-2--------|
E|----------------------------------4-5-6--------------------------------4-5-6-|
pm . . . . . . . . . . . . . . . . . . . . . . . . . . . . . . . . . . . . .

E|------------------------------------------|
B|------------------------------------------|
G|------------------------------------------|
D|------------------------------------------|
A|-9-8-7-6-5-4-9-8-7-6-5-4-9-8-7-6-5--4-----|
E|-7-6-5-4-3-2-7-6-5-4-3-2-7-6-5-4-3--2-----|
pm . . . .


Piano:
Piano Chords
E|-2--------------0-----2-----|
B|-3------3-------2-----2-----|
G|-4------4-------0-----3-----|
D|-4------3-------2-----4-----|
A|-2------x-------2-----4-----|
E|--------4-------0-----2-----|
   A chord diagramB minorBm  A chord diagramG#dim7G#dim7    A chord diagramEm6Em6    A chord diagramF#F#


Chorus:
Lead Guitar
E|----------------------------------------------------------------|
B|--------------------------------------12-----------10-8-7-------|
G|--------9-11--7--7-9-10-9b-7-6/7/9-11-----4h6-7b-6--------7-----|
D|-9-11-12--------------------------------------------------------|
A|----------------------------------------------------------------|
E|----------------------------------------------------------------|

E|-------------------------------------------10-12-14--10---|
B|----------------------12--12-14-15------------------------|
G|-7-9-10-9-7-6-7-9-11---------------12-11-10---------------|
D|----------------------------------------------------------|
A|----------------------------------------------------------|
E|----------------------------------------------------------|

E|-10-12-13-12-10-9-10-12-14--19----------------17-15-14--10------|
B|-------------------------------12-14-15-15b-14------------------|
G|----------------------------------------------------------------|
D|----------------------------------------------------------------|
A|----------------------------------------------------------------|
E|----------------------------------------------------------------|

E|-10-12-13-12-10-9-10-12-14--19---19-21-22----------22--19---|
B|------------------------------------------20-19-18---22-----|
G|------------------------------------------------------------|
D|------------------------------------------------------------|
A|------------------------------------------------------------|
E|------------------------------------------------------------|

Rhythm Guitar
E|---------------------------------|
B|---------------------------------|
G|----------------4-4-4-4----------|
D|-9-9-9-6--6-6-6-4-4-4-4-4-4-4-4--| X4
A|-9-9-9-6--6-6-6-2-2-2-2-4-4-4-4--|
E|-7-7-7-4--4-4-4---------2-2-2-2--|

E|-----------------------------------|
B|-----------------------------------|
G|-----------------------------------|
D|-9-------6-6-----11-11-11-4-4-4----| X4
A|-9-------6-6-6-8-11-11-11-4-4-4----|
E|-7-7-7-7-4-4-4-6-9--9--9--2-2-2----|
pm   . . .     . .


Riff:

Riff Guitar
E|----------------------------------------------------------------------------|
B|----------------------------------------------------------------------------|
G|----------------------------------------------------------------------------|
D|-----------------------------3-2-0---------------------------------3-2-0----|
A|-2-2-2p0-2-5-2---0-2-2-2p0-2-------0-2-2-2p0-2-5-2---0-2-2-2p0h2-5-------0--|
E|---------------2-----------------------------------2------------------------|

E|-------------------------------------------------------------------------|
B|-------------------------------------------------------------------------|
G|-------------------------------------------------------------------------|
D|-----------------------------3-2-0---------------------------------------|
A|-2-2-2p0-2-5-2---0-2-2-2p0-2-------0-2-2-2p0-2-5-2---0-2-2-2-0-2---------|
E|---------------2-----------------------------------2---------------------|

Octave Guitar
E|---------------------------------------------------------------------|
B|---------------------------------------------------------------------|
G|-----------7-----------------10-9-7-------------7--------------------|
D|-9-9-9p7-9---9---7-9-9-9p7-9--------7-9-9-9p7-9---9---7-9-9-9-7-9----|
A|---------------9------------------------------------9----------------|
E|---------------------------------------------------------------------|


Outro:
Bend Guitar
E|---------------------14--16--18--19-----|
B|-12---14---15---17---17b-19b-21b-22b----|
G|-14b--16b--17b--19b---------------------|
D|----------------------------------------|
A|----------------------------------------|
E|----------------------------------------|


Riff Guitar
E|--------------------------------------------------------------------------|
B|--------------------------------------------------------------------------|
G|--------------------------------------------------------------------------|
D|-----------------------------3-2-0-------------------------------3-2-0----|
A|-2-2-2p0-2-5-2---0-2-2-2p0-2-------0-2-2-2p0-2-5-2---0-2-2-2p0-2-------0--|
E|---------------2-----------------------------------2----------------------|

E|---------------------------------------------------------------------------|
B|---------------------------------------------------------------------------|
G|---------------------------------------------------------------------------|
D|-----------------------------3-2-0------------------------------0-3-2-0----|
A|-2-2-2p0-2-5-2---0-2-2-2p0-2-------0-2-2-2p0-2-5-2---0-2-2-2p0h2--------0--|
E|---------------2-----------------------------------2-----------------------|

Octave Guitar
E|----------------------------------------------------------------------------|
B|----------------------------------------------------------------------------|
G|-----------7-----------------10-9-7-------------7-----------------10-9-7----|
D|-9-9-9p7-9---9---7-9-9-9p7-9--------7-9-9-9p7-9---9---7-9-9-9p7-9--------7--|
A|---------------9------------------------------------9-----------------------|
E|----------------------------------------------------------------------------|

E|---------------------------------------------------------------------------|
B|---------------------------------------------------------------------------|
G|-----------7-----------------10-9-7-------------7----------------7-10-9-7--|
D|-9-9-9p7-9---9---7-9-9-9p7-9--------7-9-9-9p7-9---9---7-9-9-9p7h9----------|
A|---------------9------------------------------------9----------------------|
E|---------------------------------------------------------------------------|

Lead Guitar
E|----------------10-------------------------13-12-10-----|
B|-12-12-12p10-12----12----10-12-12-12p10-12----------10--|
G|----------------------11--------------------------------|
D|--------------------------------------------------------|
A|--------------------------------------------------------|
E|--------------------------------------------------------|

E|----------------10-------------------------13-12-10-----|
B|-12-12-12p10-12----12----10-12-12-12p10-12----------10--|
G|----------------------11--------------------------------|
D|--------------------------------------------------------|
A|--------------------------------------------------------|
E|--------------------------------------------------------|

E|----------------10------------------------10-13-12-10-----|
B|-12-12-12p10-12----12----10-12-12-12p10h12------------10--|
G|----------------------11----------------------------------|
D|----------------------------------------------------------|
A|----------------------------------------------------------|
E|----------------------------------------------------------|

Rhythm Guitar 1
E|------------------------------------------------------------------|
B|------------------------------------------------------------------|
G|------------------------------------------------------------------|
D|-9-9-9-9-9-9-9-9-7-7-7-7-7-7-7-7-6-6-6-6-6-6-6-6-7-7-7-7-7-7-7-7--|
A|------------------------------------------------------------------|
E|-7-7-7-7-7-7-7-7-5-5-5-5-5-5-5-5-4-4-4-4-4-4-4-4-5-5-5-5-5-5-5-5--|

E|------------------------------------------------------------------|
B|------------------------------------------------------------------|
G|------------------------------------------------------------------|
D|-9-9-9-9-9-9-9-9-7-7-7-7-7-7-7-7-6-6-6-6-6-6-6-7-7-7-7-7-7-7-7-7--|
A|------------------------------------------------------------------|
E|-7-7-7-7-7-7-7-7-5-5-5-5-5-5-5-5-4-4-4-4-4-4-4-5-5-5-5-5-5-5-5-5--|

Rhythm Guitar 2
E|-----------------------------------|
B|-----------------------------------|
G|-4-4-4-4-4-4-4-4-4-4-4-4-4-7-9-9---|
D|-4-4-4-4-4-4-4-4-4-4-4-4-4-7-9-9---| X3
A|-2-2-2-2-2-2-2-2-2-2-2-2-2-5-7-7---|
E|-----------------------------------|

E|-------------------------|
B|-------------------------|
G|-4-4-4-4-4-4-4-4-4---6---|
D|-4-4-4-4-4-4-4-4-4---4---|
A|-2-2-2-2-2-2-2-2-2---2---|
E|-------------------------|


************************************

| x   Dead note
| h   Hammer-on
| p   Pull-off
| b   Bend
| /   Slide
| PM  Palm mute

************************************

↓ Add and view comments below ↓

What do you think about this song and these tabs?

Add your comments, questions, rant or a thumbs up below.

Almost there ...

Sign in to get your own page with links to favourite songs and more. You are just one click away...

Login with Facebook Login with Google