Log in

One click and you are in

Login with Facebook Login with Google

Why sign up and log in

Guitar Tabs Explorer
7seconds tabs for New wind

Guitar tabs

New Wind - 7SECONDS

Transcribed by Mitch Anstey (NSPUNK@aol.com)

This is a kickass song!  I can't believe it isn't on

here already, but here it is.  If you like 7SECONDS

then you have to be cool!  Enjoy my punk friends!

Beginning:                            Main Riff:
|-------------------------------------||-----------------------------------|
|-------------------------------------||-----------------------------------|
|----------------------8-9------11-12-||--------------8-8--9-9-9-9---------|
|12--10--9--7--------7-8-9-9-10-11-12-||-7-7-7-7-7-7--8-8--9-9-9-9--9-9-9-9|
|10--10--9--7-(BASS)-7-6-7-9-10-9--10-||-7-7-7-7-7-7--6-6--7-7-7-7--9-9-9-9|
|10--8---7--5--------5-----7-8--------||-5-5-5-5-5-5----------------7-7-7-7|

|-------------------------------------------------------------------|
|-------------------------------------------------------------------|
|-------------------11-11--12-12-12-12--7-7-7-7--(go back to--------|
|10-10-10-10-10-10--11-11--12-12-12-12--7-7-7-7---bouble bar;repeat)|
|10-10-10-10-10-10--9--9---10-10-10-10--5-5-5-5---------------------|
|8--8--8--8--8--8---------------------------------------------------|


Chorus:
|-----------------------------------------------------------|
|-----------------------------------------------------------|
|-7-7-7-7-7-7-7-7--9-9-9-9-9-9-9-9--12-12-12-12-12-12-12-12-|
|-7-7-7-7-7-7-7-7--9-9-9-9-9-9-9-9--12-12-12-12-12-12-12-12-|
|-5-5-5-5-5-5-5-5--7-7-7-7-7-7-7-7--10-10-10-10-10-10-10-10-|
|-----------------------------------------------------------|

|----------------------------------|
|----------------------------------|
|-14-14-14-14-14-14-14-14----------|
|-14-14-14-14-14-14-14-14--(repeat)|
|-12-12-12-12-12-12-12-12----------|
|----------------------------------|


Ending: just add the beginning to the front of this.
|------------------------|
|------------------------|
|------------------------|
|-7--7-7--7--7-7--5-(let-|
|-7--7-7--7--7-7--5-ring)|
|-5--5-5--5--5-5--3------|

At the end just listen to it to see what they're playin'.

Just remember;            ANARCHY
                             /\
                            /  \
                           /    \
                   ----------------------
                         /        \
                        /          \
                       /            \
                      /              \

Almost there ...

Sign in to get your own page with links to favourite songs and more. You are just one click away...

Login with Facebook Login with Google