Log in

One click and you are in

Login with Facebook Login with Google

Why sign up and log in

Guitar Tabs Explorer
54 40 tabs for Radio luv song

Guitar tabs

Radio Luv Song, by 54*40
------------------------

Lots of E, then :

A chord diagramE MajorE   A chord diagramEsus4Esus4   A chord diagramEsus4Esus4   A chord diagramE MajorE  ad infinitum, like :

-------------|
-------------|
------2-2-1--|
-2-2--2-2-2-2|
-2-2--------2|
-0-0--------0|

Love song, ...
  A chord diagramBb majorBb
I can't think ...
     A chord diagramA augmentedA
You stop me ...
A chord diagramE MajorE
Leave me peace ...
      A chord diagramFF
Don't you come ...


E//// E//// E///////////...

D.J., on ...

I don't ...

Anti-Solo (where b = bend):
     16X        7X          24X          7X
-------------|------------|------------|------------|
12-----------|-13---------|-12---------|-13---------|
14b----------|-15b--------|-14b--------|-15b--------|
-------------|------------|------------|------------|
-------------|------------|------------|------------|
-------------|------------|------------|------------|

 7X            7X           7X           7X
-------------|------------|------------|------------|
-6-----------|-5----------|------------|------------|
-8b----------|-7b---------|-3b---------|-4b---------|
-------------|------------|------------|------------|
-------------|------------|------------|------------|
-------------|------------|------------|------------|

 7X            7X           8X           7X
-------------|------------|------------|------------|
-6-----------|-5----------|-12---------|-13---------|
-8b----------|-7b---------|-14b--------|-15b--------|
-------------|------------|------------|------------|
-------------|------------|------------|------------|
-------------|------------|------------|------------|

E//// E//// E//// E////


If this was of any use to you whatsoever, let me know.

Almost there ...

Sign in to get your own page with links to favourite songs and more. You are just one click away...

Login with Facebook Login with Google