Log in

One click and you are in

Login with Facebook Login with Google

Why sign up and log in

Guitar Tabs Explorer
50 Cent bass tabs for Part of the game

Bass tabs

Tuning: Standard (E A D G)


Intro/Chorus 1:
G |-----------------|x 7 times
D |-3---5-1-2-3-----|
A |---3-------------|
E |-----------------|
  1 & 2 & 3 & 4 &

G |-----------------|-----------------|
D |-3---5---------- |-----------------|
A |---3-----1-2-3---|-----------------|
E |-----------------|-----------------|
  1 & 2 & 3 & 4 &  1 & 2 & 3 & 4 &

Brief pause after intro/chorus and resumes during verse after he says "we'll take money southside"

Verse 1:
G |-----------------|------------------|-----------------|------------------|
D |-3---5-1-2-3-----|--3---5-----------|-3---5---2-3-----|--3---5-1-2-3-----|
A |---3-------------|----3----1-2-3----|---3-------------|----3-------------|
E |-----------------|------------------|-----------------|------------------|
  1 & 2 & 3 & 4 &  1 & 2 & 3 & 4 &  1 & 2 & 3 & 4 &  1 & 2 & 3 & 4 &
G |-----------------|------------------|-----------------|------------------|
D |-3---5-1-2-3-----|--3---5-----------|-3---5-1-2-3-----|--3---5-1-2-3-----|
A |---3-------------|----3--- 1-2-3----|---3-------------|----3-------------|
E |-----------------|------------------|-----------------|------------------|
  1 & 2 & 3 & 4 &  1 & 2 & 3 & 4 &  1 & 2 & 3 & 4 &  1 & 2 & 3 & 4 &

G |-----------------|------------------|-----------------|------------------|
D |-3---5-1-2-3-----|--3---5--1-2-3----|-3---5-1-2-3-----|--3---5-1-2-3-----|
A |---3-------------|----3-------------|---3-------------|----3-------------|
E |-----------------|------------------|-----------------|------------------|
  1 & 2 & 3 & 4 &  1 & 2 & 3 & 4 &  1 & 2 & 3 & 4 &  1 & 2 & 3 & 4 &
G |-----------------|------------------|
D |-3---5-1-2-3-----|------------------|
A |---3-------------|------ 1-2-3------|
E |-----------------|------------------|.
  1 & 2 & 3 & 4 &  1 & 2 & 3 & 4 &

Chorus 2:
G |-----------------|------------------|-----------------|------------------|
D |-3---5-1-2-3-----|--3---5--1-2-3----|-3---5-1-2-3-----|--3---5-----------|
A |---3-------------|----3-------------|---3-------------|----3-----1-2-3---|
E |-----------------|------------------|-----------------|------------------|
  1 & 2 & 3 & 4 &  1 & 2 & 3 & 4 &  1 & 2 & 3 & 4 &  1 & 2 & 3 & 4 &
G |-----------------|------------------|-----------------|------------------|
D |-3---5-1-2-3-----|--3---5--1-2-3----|-3---5-1-2-3-----|--3---5-----------|
A |---3-------------|----3-------------|---3-------------|----3-----1-2-3---|
E |-----------------|------------------|-----------------|------------------|
  1 & 2 & 3 & 4 &  1 & 2 & 3 & 4 &  1 & 2 & 3 & 4 &  1 & 2 & 3 & 4 &


Verse 2:

G |-----------------|------------------|-----------------|------------------|
D |-3---5-1-2-3-----|--3---5--1-2-3----|-3---5-1-2-3-----|--3---5-----------|
A |---3-------------|----3-------------|---3-------------|----3-----1-2-3---|
E |-----------------|------------------|-----------------|------------------|
  1 & 2 & 3 & 4 &  1 & 2 & 3 & 4 &  1 & 2 & 3 & 4 &  1 & 2 & 3 & 4 &
G |-----------------|------------------|-----------------|------------------|
D |-3---5-1-2-3-----|--3---5--1-2-3----|-3---5-1-2-3-----|--3---5-----------|
A |---3-------------|----3-------------|---3-------------|----3-----1-2-3---|
E |-----------------|------------------|-----------------|------------------|
  1 & 2 & 3 & 4 &  1 & 2 & 3 & 4 &  1 & 2 & 3 & 4 &  1 & 2 & 3 & 4 &
G |-----------------|------------------|-----------------|------------------|
D |-3---5-1-2-3-----|--3---5--1-2-3----|-3---5-1-2-3-----|--3---5-----------|
A |---3-------------|----3-------------|---3-------------|----3-----1-2-3---|
E |-----------------|------------------|-----------------|------------------|
  1 & 2 & 3 & 4 &  1 & 2 & 3 & 4 &  1 & 2 & 3 & 4 &  1 & 2 & 3 & 4 &
G |-----------------|------------------|-----------------|------------------|
D |-3---5-1-2-3-----|--3---5--1-2-3----|-3---5-1-2-3-----|--3---5-----------|
A |---3-------------|----3-------------|---3-------------|----3-----1-2-3---|
E |-----------------|------------------|-----------------|------------------|
  1 & 2 & 3 & 4 &  1 & 2 & 3 & 4 &  1 & 2 & 3 & 4 &  1 & 2 & 3 & 4 &


Chorus 3:
G |-----------------|------------------|-----------------|------------------|
D |-3---5-1-2-3-----|--3---5--1-2-3----|-3---5-1-2-3-----|--3---5-----------|
A |---3-------------|----3-------------|---3-------------|----3-----1-2-3---|
E |-----------------|------------------|-----------------|------------------|
  1 & 2 & 3 & 4 &  1 & 2 & 3 & 4 &  1 & 2 & 3 & 4 &  1 & 2 & 3 & 4 &
G |-----------------|------------------|-----------------|------------------|
D |-3---5-1-2-3-----|--3---5--1-2-3----|-3---5-1-2-3-----|--3---5-----------|
A |---3-------------|----3-------------|---3-------------|----3-----1-2-3---|
E |-----------------|------------------|-----------------|------------------|
  1 & 2 & 3 & 4 &  1 & 2 & 3 & 4 &  1 & 2 & 3 & 4 &  1 & 2 & 3 & 4 &
G |-----------------|------------------|-----------------|------------------|
D |-3---5-1-2-3-----|--3---5--1-2-3----|-3---5-1-2-3-----|--3---5-----------|
A |---3-------------|----3-------------|---3-------------|----3-----1-2-3---|
E |-----------------|------------------|-----------------|------------------|
  1 & 2 & 3 & 4 &  1 & 2 & 3 & 4 &  1 & 2 & 3 & 4 &  1 & 2 & 3 & 4 &
ⓘ Bass guitar tab for 'Part Of The Game' by 50 Cent, Curtis James Jackson III, a male hip-hop artist from New York, USA. 50 Cent was born in 1975. 50 Cent is known for his angry urban/r&b music.

Almost there ...

Sign in to get your own page with links to favourite songs and more. You are just one click away...

Login with Facebook Login with Google