Log in

One click and you are in

Login with Facebook Login with Google

Why sign up and log in

Guitar Tabs Explorer
5 Seconds Of Summer bass tabs for Youngblood

Bass tabs

Tuning: Standard (E A D G)

Key: Bb

Difficulty: Intermediate

(Nothing in Verse 1)

Pre-Chorus:

G|------------------------------------------------------------------------------------|
D|------------------------------------------------------------------------------------|
A|------------------------------------------------------------------------------------|
E|-1~--3~--3~--5~--/8-----------------------------------------------------------------|


Chorus:

G|------------------------------------------------------------------------------------|
D|------------------------------------------------------------------------------------|
A|------------------------------------------------------------------------------------|
E|-5--5-5--5-5--5-5--5-3--3-3--3-8--8-8--8-1--1-1--1-1--1-1--1-1--1-1--1-3--3-3-------|

G|------------------------------------------------------------------------------------|
D|------------------------------------------------------------------------------------|
A|------------------------------------------------------------------------------------|
E|-3-5--5-5--5-5--5-5--5-3--3-3--3-8--8-8--8-1--1-1--1-1--1-1--1----------------------|

G|------------------------------------------------------------------------------------|
D|------------------------------------------------------------------------------------|
A|-6-6-6-5-5-5-3--5-3--2--------------------------------------------------------------|
E|------------------------5--5-5--5-5--5-5--5-3--3-3--3-8--8-8--8-1--1-1--1-1--1------|

G|------------------------------------------------------------------------------------|
D|------------------------------------------------------------------------------------|
A|------------------------------------------------------------------------------------|
E|-1--1-1--1-1--1-3--3-3--3-5--5-5--5-5--5-5--5-3--3-3--3-8--8-8--8-1--1-1--1-1--1----|

G|------------------------------------------------------------------------------------|
D|------------------------------------------------------------------------------------|
A|------------------------------------------------------------------------------------|
E|-1--1-1--1/8--1-3--1/10--3----------------------------------------------------------|


Verse 2:

G|------------------------------------------------------------------------------------|
D|------------------------------------------------------------------------------------|
A|------------------------------------------------------------------------------------|
E|-5~--3~--8~--1~--3~--5~--3~--8~--1~--3~---------------------------------------------|


Chorus:

G|------------------------------------------------------------------------------------|
D|------------------------------------------------------------------------------------|
A|------------------------------------------------------------------------------------|
E|-5--5-5--5-5--5-5--5-3--3-3--3-8--8-8--8-1--1-1--1-1--1-1--1-1--1-1--1-3--3-3--3----|

G|------------------------------------------------------------------------------------|
D|------------------------------------------------------------------------------------|
A|-------------------------------------------------------------6-6-6-5-5-5-3-5-3-2----|
E|-5--5-5--5-5--5-5--5-3--3-3--3-8--8-8--8-1--1-1--1-1--1-1--1------------------------|

G|------------------------------------------------------------------------------------|
D|------------------------------------------------------------------------------------|
A|------------------------------------------------------------------------------------|
E|-5--5-5--5-5--5-5--5-3--3-3--3-8--8-8--8-1--1-1--1-1--1-1--1-1--1-1--1-3--3-3--3----|

G|------------------------------------------------------------------------------------|
D|------------------------------------------------------------------------------------|
A|------------------------------------------------------------------------------------|
E|-5--5-5--5-5--5-5--5-3--3-3--3-8--8-8--8-1--1-1--1-1--1-1--1-1--1-1/8--1-3--1/10--3-|


Pre-Chorus:

G|------------------------------------------------------------------------------------|
D|------------------------------------------------------------------------------------|
A|------------------------------------------------------------------------------------|
E|-5--3~--8~--1~--3~------------------------------------------------------------------|


Chorus:

G|------------------------------------------------------------------------------------|
D|------------------------------------------------------------------------------------|
A|------------------------------------------------------------------------------------|
E|-5--5-5--5-5--5-5--5-3--3-3--3-8--8-8--8-1--1-1--1-1--1-1--1-1--1-1--1-3--3-3--3----|

G|------------------------------------------------------------------------------------|
D|------------------------------------------------------------------------------------|
A|------------------------------------------------------------------------------------|
E|-5--5-5--5-5--5-5--5-3--3-3--3-8--8-8--8-1--1-1--1-1--1-1--1-1--1/8--1-3--1/10--3---|

G|------------------------------------------------------------------------------------|
D|------------------------------------------------------------------------------------|
A|------------------------------------------------------------------------------------|
E|-5--5-5--5-5--5-5--5-3--3-3--3-8--8-8--8-1--1-1--1-1--1-1--1-1--1-1--1-3--3-3--3----|

G|------------------------------------------------------------------------------------|
D|------------------------------------------------------------------------------------|
A|------------------------------------------------------------------------------------|
E|-5--5-5--5-5--5-5--5-3--3-3--3-8--8-8--8-1--1-1--1-1--1-1--1-1--1/8--1-3--1/10--3---|


Pre-Chorus:

G|------------------------------------------------------------------------------------|
D|------------------------------------------------------------------------------------|
A|------------------------------------------------------------------------------------|
E|-5--5-5--5-5--5-5--5-3--3-3--3-8--8-8--8-1--1-1--1-1--1-1--1-1--1-1--1-3--3-3--3----|


Outro:

G|------------------------------------------------------------------------------------|
D|------------------------------------------------------------------------------------|
A|------------------------------------------------------------------------------------|
E|-5--5-5--5-5--5-5--5-3--3-3--3-8--8-8--8-1--1-1--1-1--1-1--1-1--1-1--1-3--3-3--3----|


************************************

| /  Slide up
| ~  Hold Note

************************************

Almost there ...

Sign in to get your own page with links to favourite songs and more. You are just one click away...

Login with Facebook Login with Google