Log in

One click and you are in

Login with Facebook Login with Google

Why sign up and log in

Guitar Tabs Explorer
5 Seconds Of Summer bass tabs for Stay acoustic

Bass tabs with lyrics

  • Difficulty: Intermediate
(0:01)


Verse 1:

It's true that all that you

G|-----------------------------------------|
D|-----------------------------------------|
A|-0---0---0-0-0---0---0---0-0-0-0---------|
E|-----------------------------------------|

know is all that you are. You said that it's

G|-----------------------------------------|
D|-----------------------------------------|
A|--3---3---3-3-3---3---3---3-3-3----------|
E|-----------------------------------------|

all that you want and more.

G|-----------------------------------------|
D|-------------2----0----------------------|
A|---------3------------0------------------|
E|-3---5-----------------------------------|

Fuck off and pour another drink and

G|-----------------------------------------|
D|-----------------------------------------|
A|-0---0---0-0-0---0---0---0-0-0-0---------|
E|-----------------------------------------|

tell me what you think. You know that i'm

G|-----------------------------------------|
D|-----------------------------------------|
A|--3---3---3-3-3---3---3---3-3-3----------|
E|-----------------------------------------|

too drunk to talk right now.

G|-----------------------------------------|
D|-------------2----0----------------------|
A|---------3------------0------------------|
E|-3---5-----------------------------------|

You put your cigarrete out on my

G|-----------------------------------------|
D|-----------------------------------------|
A|-0---0---0-0-0---0---0---0-0-0-----------|
E|-----------------------------------------|

face, so beautiful. Please woman

G|-----------------------------------------|
D|-----------------------------------------|
A|--3---3---3-3-3---3---3---3-3-3----------|
E|-----------------------------------------|

don't break your back for me i'll put you

G|-----------------------------------------|
D|-------------2----0----------------------|
A|---------3-----------0---0---0---0-0-0---|
E|-3---5-----------------------------------|

out of your misery.

G|-----------------------------------------|
D|---3~------------------------------------|
A|-----------------------------------------|
E|-----------------------------------------|
Chorus:

Tell me that it's all okay

G|-----------------------------------------|
D|-----------------------------------------|
A|-3---3---3-3-3---3---3----3-3-3----------|
E|-----------------------------------------|

I've been waiting on this all damn day

G|-----------------------------------------|
D|-----------------------------------------|
A|-----------------------------------------|
E|-5---5---5-5-5---5---5---5-5-5-----------|

Call me in the morning, tell me how last night went

G|-----------------------------------------|
D|-----------------------------------------|
A|-----------------------------------------|
E|-1---1---1-1-1---1---1---1-1-1-----------|

I'm here, but don't

G|-----------------------------------------|
D|-----------------------------------------|
A|-----------------------------------------|
E|-3---3---3-3-3---3---3---3-3-3-----------|

count on me to

G|-----------------------------------------|
D|---3-------------------------------------|
A|-------3---1---3-------------------------|
E|-----------------------------------------|


Verse 2:

stay a little longer if you convince me

G|-----------------------------------------|
D|-----------------------------------------|
A|-0---0---0-0-0---0---0---0-0-0-----------|
E|-----------------------------------------|

tell me all the things that you have against me

G|-----------------------------------------|
D|-----------------------------------------|
A|-0---0---0-0-0---0---0---0-0-0-----------|
E|-----------------------------------------|


every time we make up the truth is fading

G|-----------------------------------------|
D|-----------------------------------------|
A|--3---3---3-3-3--------------------------|
E|-----------------------------------------|

everybody's blind when the views amazing

G|-----------------------------------------|
D|---------------14---12---10--------------|
A|-----------------------------------------|
E|-----------------------------------------|

damn who are we right now?

G|-----------------------------------------|
D|-------------2----0----------------------|
A|---------3------------0------------------|
E|-3---5-----------------------------------|

can we have a little conversation?

G|-----------------------------------------|
D|-----------------------------------------|
A|-0---0---0-0-0---0---0---0-0-0-----------|
E|-----------------------------------------|

figure it out with no intoxication

G|-----------------------------------------|
D|-----------------------------------------|
A|-0---0---0-0-0---0---0---0-0-0-----------|
E|-----------------------------------------|


we carry on, what is our motivation

G|-----------------------------------------|
D|-----------------------------------------|
A|--3---3---3-3-3--------------------------|
E|-----------------------------------------|

we're never wrong, how the hell we gonna make it?

G|-----------------------------------------|
D|---------------14---12---10--------------|
A|-----------------------------------------|
E|-----------------------------------------|

maybe we're used to this

G|-----------------------------------------|
D|-------------2----0----------------------|
A|---------3------------0------------------|
E|-3---5-----------------------------------|

tell me what are we to do?

G|-----------------------------------------|
D|-----------------------------------------|
A|-0---0---0-0-0---0---0---0-0-0-----------|
E|-----------------------------------------|

its like we only play to loose

G|-----------------------------------------|
D|-----------------------------------------|
A|-0---0---0-0-0---0---0---0-0-0-----------|
E|-----------------------------------------|

chasing pain with an excuse

G|-----------------------------------------|
D|-----------------------------------------|
A|--3---3---3-3-3--------------------------|
E|-----------------------------------------|

i love that shit and so do you

G|-----------------------------------------|
D|---------------14---12---10--------------|
A|-----------------------------------------|
E|-----------------------------------------|

don't break your back for me i'll put you

G|-----------------------------------------|
D|-------------2----0----------------------|
A|---------3-----------0---0---0---0-0-0---|
E|-3---5-----------------------------------|

out of your misery.

G|-----------------------------------------|
D|---3~------------------------------------|
A|-----------------------------------------|
E|-----------------------------------------|


Chorus:

Tell me that it's all okay

G|-----------------------------------------|
D|-----------------------------------------|
A|-3---3---3-3-3---3---3----3-3-3----------|
E|-----------------------------------------|

I've been waiting on this all damn day

G|-----------------------------------------|
D|-----------------------------------------|
A|-----------------------------------------|
E|-5---5---5-5-5---5---5---5-5-5-----------|

Call me in the morning, tell me how last night went

G|-----------------------------------------|
D|-----------------------------------------|
A|-----------------------------------------|
E|-1---1---1-1-1---1---1---1-1-1-----------|

I'm here, but don't

G|-----------------------------------------|
D|-----------------------------------------|
A|-----------------------------------------|
E|-3---3---3-3-3---3---3---3-3-3-----------|

count on me to

G|-----------------------------------------|
D|----3------------------------------------|
A|---------3---1------0--------------------|
E|----------------5------------------------|


Bridge:

stay

G|-----------------------------------------|
D|-----------------------------------------|
A|-0---0---0-0-0---0---0---0-0-0-----------|
E|-----------------------------------------|


instrumental:

G|-----------------------------------------|
D|------------------14---12---10-----------|
A|--3---3---3-3-3--------------------------|
E|-----------------------------------------|

G|-----------------------------------------|
D|-------------2----0-------------------3~-|
A|---------3-----------0---0--0---0-0-0----|
E|-3---5-----------------------------------|


Outro:

tell me that it's all okay

G|-----------------------------------------|
D|-----------------------------------------|
A|---3~------------------------------------|
E|-----------------------------------------|

i've been waiting on this all damn day

G|-----------------------------------------|
D|-----------------------------------------|
A|-------0~--------------------------------|
E|-----------------------------------------|

call me in the morning tell me how last night went

G|-----------------------------------------|
D|-----------------------------------------|
A|-----------------------------------------|
E|-----------1~----------------------------|

i'm here, but don't

G|-----------------------------------------|
D|-----------------------------------------|
A|-----------------------------------------|
E|----------------3~-----------------------|

count on me to stay

G|-----------------------------------------|
D|----------------------3------------------|
A|--------------------------3---1----0~----|
E|---------------------------------3-------|


| x  Dead note
| /  Slide-up
| pb Pre-bend
| ~  Vibrato
|  Staccato
| PM Palm muting
ⓘ Bass guitar tab for 'Stay Acoustic' by 5 Seconds Of Summer, a pop-punk band formed in 2013 from Sydney, Australia. 5 Seconds Of Summer is known for their excitable rock/pop music.

Other versions of Stay Acoustic

Other alternative guitar chords and tabs for the song Stay by 5 Seconds Of Summer
StayBass tabs

Almost there ...

Sign in to get your own page with links to favourite songs and more. You are just one click away...

Login with Facebook Login with Google