Log in

One click and you are in

Login with Facebook Login with Google

Why sign up and log in

Guitar Tabs Explorer
5 Seconds Of Summer bass tabs for If walls could talk

If Walls Could Talk bass tab by 5 Seconds Of Summer

5 Seconds Of Summer bass tabs for If walls could talk

Bass tabs with lyrics

Tuning: Standard (E A D G)


Intro:

G|---------------------------------------------------------------------------|
D|---------------------------------------------------------------------------|
A|---------------------------------------------------------------------------|
E|-0-0-0-0-0-0-0-0-8-8-8-8-5-5-5-5-------------------------------------------|

Verse 1:
Some things are meant to be secret and not to be heard...
G|---------------------------------------------------------------------------|
D|---------------------------------------------------------------------------|
A|---------------------------------------------------------------------------|
E|-0-0-0-0-0-0-0-0-8-8-8-8-5-5-5-5-------------------------------------------|

Yeah, when the doors are all closing, it's bound to get loud...
G|---------------------------------------------------------------------------|
D|---------------------------------------------------------------------------|
A|---------------------------------------------------------------------------|
E|-0-0-0-0-0-0-0-0-8-8-8-8-5-5-5-5-------------------------------------------|


[Pre-Chorus}
Oh, not everything is so primitive...
G|---------------------------------------------------------------------------|
D|---------------------------------------------------------------------------|
A|---------------------------------------------------------------------------|
E|-0-0-0-0-0-0-0-0-8-8-8-8-5-5-5-5-------------------------------------------|


Chorus:
If these walls could talk, I'd hope they wouldn't say anything
Because they've seen way too many things
'Cause we'd fall from grace, we're falling
Yeah, we'd fall from grace

If these walls could talk, I'd hope they would'nt say anthing...
G|---------------------------------------------------------------------------|
D|---------------------------------------------------------------------------|
A|--3----7----10----10----12-------------------------------------------------|
E|---------------------------------------------------------------------------|

'Cause we'd fall from grace, we're falling...
G|---------------------------------------------------------------------------|
D|---------------------------------------------------------------------------|
A|--3----7----10-------------------------------------------------------------|
E|---------------------------------------------------------------------------|

If these walls could talk.
G|---------------------------------------------------------------------------|
D|---------------------------------------------------------------------------|
A|---------------------------------------------------------------------------|
E|-0-0-0-0-0-0-0-0-8-8-8-8-5-5-5-5-------------------------------------------|

If these walls could talk.
G|---------------------------------------------------------------------------|
D|---------------------------------------------------------------------------|
A|---------------------------------------------------------------------------|
E|-0-0-0-0-0-0-0-0-8-8-8-8-5-5-5-5-------------------------------------------|

Verse 2:
I love your hair in your face
I wouldn't dare let you down
Don't let that glass go to waste
Oh, you're a queen but uncrowned


Pre-Chorus:
Oh, not everything is so primitive...
G|---------------------------------------------------------------------------|
D|---------------------------------------------------------------------------|
A|---------------------------------------------------------------------------|
E|-0-0-0-0-0-0-0-0-8-8-8-8-5-5-5-5-------------------------------------------|


Chorus:
If these walls could talk, I'd hope they wouldn't say anything
Because they've seen way too many things
'Cause we'd fall from grace, we're falling
Yeah, we'd fall from grace
If these walls could talk.
G|---------------------------------------------------------------------------|
D|---------------------------------------------------------------------------|
A|---------------------------------------------------------------------------|
E|-0-0-0-0-0-0-0-0-8-8-8-8-5-5-5-5-------------------------------------------|

If these walls could talk.
G|---------------------------------------------------------------------------|
D|---------------------------------------------------------------------------|
A|---------------------------------------------------------------------------|
E|-0-0-0-0-0-0-0-0-8-8-8-8-5-5-5-5-------------------------------------------|


Bridge:
Some things are meant to be secret and not to be heard...
G|---------------------------------------------------------------------------|
D|---------------------------------------------------------------------------|
A|---------------------------------------------------------------------------|
E|--0----0----8----5---------------------------------------------------------|

Yeah, when the doors are all closing, it's bound to get loud...
G|---------------------------------------------------------------------------|
D|---------------------------------------------------------------------------|
A|-----------------7-5-3-----------------------------------------------------|
E|-5-3---0----0-------------5------------------------------------------------|


Chorus:
If these walls could talk, I'd hope they wouldn't say anything
Because they've seen way too many things
'Cause we'd fall from grace, we're falling
Yeah, we'd fall from grace
If these walls could talk.
G|---------------------------------------------------------------------------|
D|---------------------------------------------------------------------------|
A|---------------------------------------------------------------------------|
E|-0-0-0-0-0-0-0-0-8-8-8-8-5-5-5-5-------------------------------------------|

If these walls could talk.
G|---------------------------------------------------------------------------|
D|---------------------------------------------------------------------------|
A|---------------------------------------------------------------------------|
E|-0-0-0-0-0-0-0-0-8-8-8-8-5-5-5-5-------------------------------------------|

If these walls could talk.
G|---------------------------------------------------------------------------|
D|---------------------------------------------------------------------------|
A|---------------------------------------------------------------------------|
E|-0-------------------------------------------------------------------------|

Almost there ...

Sign in to get your own page with links to favourite songs and more. You are just one click away...

Login with Facebook Login with Google