Log in

One click and you are in

Login with Facebook Login with Google

Why sign up and log in

Guitar Tabs Explorer
5 Seconds Of Summer bass tabs for Blender

Bass tabs

🎸 Verse :

G|-----------------------------3----------------------------------------------|
D|---------------------------3---1-3------------------------------------------|
A|----------------3-3--3-3-3-----------------------3-3--3-3-3-----------------|
E|--4-4--4-4-4--4--------------------4-4--4-4-4--4-------------1--3--6--------| x2

🎸 Pre-Chorus:

G|---------------------------------------------------------------------------|
D|---------------------------------------------------------------------------|
A|-----------3----------------3----------------------------------------------|
E|---4-----6------6---4----6-------1--3--------------------------------------|


🎸 Chorus:

G|-----------------------------3---------------------------------------------|
D|---------------------------3---1-3-----------------------------------------|
A|----------------3-3--3-3-3-----------------------3-3--3-3-3----------------|
E|--4-4--4-4-4--4--------------------4-4--4-4-4--4-------------1--3--6-------| x2



🎸 Verse :

G|-----------------------------3---------------------------------------------|
D|---------------------------3---1-3-----------------------------------------|
A|----------------3-3--3-3-3-----------------------3-3--3-3-3----------------|
E|--4-4--4-4-4--4--------------------4-4--4-4-4--4-------------1--3--6-------|


🎸 Pre-Chorus:

G|---------------------------------------------------------------------------|
D|---------------------------------------------------------------------------|
A|-----------3----------------3----------------------------------------------|
E|---4-----6------6---4----6-------1--3--------------------------------------|


🎸 Chorus:

G|-----------------------------3---------------------------------------------|
D|---------------------------3---1-3-----------------------------------------|
A|----------------3-3--3-3-3-----------------------3-3--3-3-3----------------|
E|--4-4--4-4-4--4--------------------4-4--4-4-4--4-------------1--3--6-------| x2


🎸 Bridge:
G|---------------------------------------------------------------------------|
D|---------------------------------------------------------------------------|
A|------3-------3-------3-------3--------------------------------------------|
E|---4-------4-------4-------4-----------------------------------------------|


🎸 Chorus:
G|-----------------------------3---------------------------------------------|
D|---------------------------3---1-3-----------------------------------------|
A|----------------3-3--3-3-3-----------------------3-3--3-3-3----------------|
E|--4-4--4-4-4--4--------------------4-4--4-4-4--4-------------1--3--6-------|

ⓘ Bass guitar tab for 'Blender' by 5 Seconds Of Summer, a pop-punk band formed in 2013 from Sydney, Australia. 5 Seconds Of Summer is known for their excitable rock/pop music.

Almost there ...

Sign in to get your own page with links to favourite songs and more. You are just one click away...

Login with Facebook Login with Google