Log in

One click and you are in

Login with Facebook Login with Google

Why sign up and log in

Guitar Tabs Explorer
5 Seconds Of Summer guitar tabs for Amnesia

Guitar tabs with lyrics

Key:                     A chord diagramD MajorD


Intro:
E|-----------2-----------2-----------2h3-----------------|
B|-----3-----------3-----------3-------------3-----3-----|
G|--2-----2-----2-----2-----0-----0-------0-----0--------|  (2x)
D|-------------------------------------------------------|
A|-------------------------------------------------------|
E|-------------------------------------------------------|


Verse 1:

I drove by all the places we used to hang out getting wasted

E|-----------2-----------2-----------2h3-----------------|
B|-----3-----------3-----------3-------------3-----3-----|
G|--2-----2-----2-----2-----0-----0-------0-----0--------|
D|-------------------------------------------------------|
A|-------------------------------------------------------|
E|-------------------------------------------------------|


I thought about our last kiss, how it felt the way you tasted

E|-----------2-----------2-----------2h3-----------------|
B|-----3-----------3-----------3-------------3-----3-----|
G|--2-----2-----2-----2-----0-----0-------0-----0--------|
D|-------------------------------------------------------|
A|-------------------------------------------------------|
E|-------------------------------------------------------|

And even though your friends tell me you're doing fine

E|-----------2-----------2-----------------2-------------|
B|-----3-----------3-----------3-----3-------------------|
G|--------------------------0-----0-----0----------------|
D|--2-----2-----2-----4----------------------------------|
A|-------------------------------------------------------|
E|-------------------------------------------------------|


Are you somewhere feeling lonely even though he's right beside you?

E|-----------2-----------2-----------2h3-----------------|
B|-----3-----------3-----------3-------------3-----3-----|
G|--2-----2-----2-----2-----0-----0-------0-----0--------|
D|-------------------------------------------------------|
A|-------------------------------------------------------|
E|-------------------------------------------------------|


When he says those words that hurt you, do you read the ones I wrote you?

E|-----------2-----------3-----------2h3-----------------|
B|-----3-----------3-----------3-------------3-----3-----|
G|--2-----2-----2-----2-----0-----0-------0-----0--------|
D|-------------------------------------------------------|
A|-------------------------------------------------------|
E|-------------------------------------------------------|


Sometimes I start to wonder, was it just a lie?

E|-----------2-----------2-----------------2-------------|
B|-----3-----------3-----------3-----3-------------------|
G|--------------------------0-----0-----0----------------|
D|--2-----2-----2-----4----------------------------------|
A|-------------------------------------------------------|
E|-------------------------------------------------------|


If what we had was real, how could you be fine?

E|-----------2-----------2-----------------2-------------|
B|-----3-----------3-----------3-----3-------------------|
G|--------------------------0-----0-----0----------------|
D|--2-----2-----2-----4----------------------------------|
A|-------------------------------------------------------|
E|-------------------------------------------------------|


A chord diagramD MajorD
Cause I'm not fine at all

A chord diagramD MajorD                                       A chord diagramA majorA
I remember the day you told me you were leaving
A chord diagramB minorBm                                      A chord diagramG MajorG
I remember the make-up running down your face
A chord diagramD MajorD                                  A chord diagramA majorA
And the dreams you left behind you didn't need them
A chord diagramB minorBm                             A chord diagramG MajorG
Like every single wish we ever made
A chord diagramD MajorD                               A chord diagramA majorA
I wish that I could wake up with amnesia
A chord diagramB minorBm                                 A chord diagramG MajorG
And forget about the stupid little things
A chord diagramD MajorD                                   A chord diagramA majorA
Like the way it felt to fall asleep next to you
A chord diagramB minorBm                           A chord diagramG MajorG
And the memories I never can escape

Cause I'm not fine at all


E|-----------2-----------2-----------2h3-----------------|
B|-----3-----------3-----------3-------------3-----3-----|
G|--2-----2-----2-----2-----0-----0-------0-----0--------|
D|-------------------------------------------------------|
A|-------------------------------------------------------|
E|-------------------------------------------------------|


Verse 2:

The pictures that you sent me they're still living in my phone

E|-----------2-----------2-----------2h3-----------------|
B|-----3-----------3-----------3-------------3-----3-----|
G|--2-----2-----2-----2-----0-----0-------0-----0--------|
D|-------------------------------------------------------|
A|-------------------------------------------------------|
E|-------------------------------------------------------|


I admit I like to see them, I admit I feel alone

E|-----------2-----------2-----------2h3-----------------|
B|-----3-----------3-----------3-------------3-----3-----|
G|--2-----2-----2-----2-----0-----0-------0-----0--------|
D|-------------------------------------------------------|
A|-------------------------------------------------------|
E|-------------------------------------------------------|


And all my friends keep asking why I'm not around

E|-----------2-----------2-----------------2-------------|
B|-----3-----------3-----------3-----3-------------------|
G|--------------------------0-----0-----0----------------|
D|--2-----2-----2-----4----------------------------------|
A|-------------------------------------------------------|
E|-------------------------------------------------------|


It hurts to know you're happy, yeah, it hurts that you've moved on

E|-----------2-----------2-----------2h3-----------------|
B|-----3-----------3-----------3-------------3-----3-----|
G|--2-----2-----2-----2-----0-----0-------0-----0--------|
D|-------------------------------------------------------|
A|-------------------------------------------------------|
E|-------------------------------------------------------|


It's hard to hear your name when I haven't seen you in so long

E|-----------2-----------2-----------2h3-----------------|
B|-----3-----------3-----------3-------------3-----3-----|
G|--2-----2-----2-----2-----0-----0-------0-----0--------|
D|-------------------------------------------------------|
A|-------------------------------------------------------|
E|-------------------------------------------------------|


It's like we never happened, was it just a lie?

E|-----------2-----------2-----------------2-------------|
B|-----3-----------3-----------3-----3-------------------|
G|--------------------------0-----0-----0----------------|
D|--2-----2-----2-----4----------------------------------|
A|-------------------------------------------------------|
E|-------------------------------------------------------|


If what we had was real, how could you be fine?

E|-----------2-----------2-----------------2-------------|
B|-----3-----------3-----------3-----3-------------------|
G|--------------------------0-----0-----0----------------|
D|--2-----2-----2-----4----------------------------------|
A|-------------------------------------------------------|
E|-------------------------------------------------------|


A chord diagramD MajorD
'Cause I'm not fine at all

A chord diagramD MajorD                                       A chord diagramA majorA
I remember the day you told me you were leaving
A chord diagramB minorBm                                      A chord diagramG MajorG
I remember the make-up running down your face
A chord diagramD MajorD                                  A chord diagramA majorA
And the dreams you left behind you didn't need them
A chord diagramB minorBm                             A chord diagramG MajorG
Like every single wish we ever made
A chord diagramD MajorD                               A chord diagramA majorA
I wish that I could wake up with amnesia
A chord diagramB minorBm                                 A chord diagramG MajorG
And forget about the stupid little things
A chord diagramD MajorD                                   A chord diagramA majorA
Like the way it felt to fall asleep next to you
A chord diagramB minorBm                           A chord diagramG MajorG
And the memories I never can escape


Bridge:

If today I woke up with you right beside me

E|---------------|
B|--2--2---3--3--|
G|--2--2---4--4--|
D|--2--2---4--4--|
A|---------------|
E|---------------|


Like all of this was just some twisted dream

E|---------------|
B|--3--3---3--3--|
G|--0--0---2--2--|
D|--0--0---0--0--|
A|---------------|
E|---------------|


I'd hold you closer than I ever did before

E|---------------|
B|--2--2---3--3--|
G|--2--2---4--4--|
D|--2--2---4--4--|
A|---------------|
E|---------------|


And you'd never slip away, and you'd never hear me say

E|---------------|
B|--3--3---3--3--|
G|--0--0---2--2--|
D|--0--0---0--0--|
A|---------------|
E|---------------|


A chord diagramD MajorD                                       A chord diagramA majorA
I remember the day you told me you were leaving
A chord diagramB minorBm                                      A chord diagramG MajorG
I remember the make-up running down your face
A chord diagramD MajorD                                  A chord diagramA majorA
And the dreams you left behind you didn t need them
A chord diagramB minorBm                             A chord diagramG MajorG
Like every single wish we ever made
A chord diagramD MajorD                               A chord diagramA majorA
I wish that I could wake up with amnesia
A chord diagramB minorBm                                 A chord diagramG MajorG
And forget about the stupid little things
A chord diagramD MajorD                                   A chord diagramA majorA
Like the way it felt to fall asleep next to you
A chord diagramB minorBm                           A chord diagramG MajorG
And the memories I never can escape

Cause I'm not fine at all


E|-----------2-----------2-----------2h3----------------|
B|-----3-----------3-----------3-------------3-----3----|
G|--2-----2-----2-----2-----0-----0-------0-----0-------|
D|------------------------------------------------------|
A|------------------------------------------------------|
E|------------------------------------------------------|


I'm really not fine at all


E|-----------2-----------2-----------2h3----------------|
B|-----3-----------3-----------3-------------3-----3----|
G|--2-----2-----2-----2-----0-----0-------0-----0-------|
D|------------------------------------------------------|
A|------------------------------------------------------|
E|------------------------------------------------------|


Tell me this is just a dream


E|-----------2-----------2-----------2h3----------------|
B|-----3-----------3-----------3-------------3-----3----|
G|--2-----2-----2-----2-----0-----0-------0-----0-------|
D|------------------------------------------------------|
A|------------------------------------------------------|
E|------------------------------------------------------|

'Cause I'm really not fine at all


E|-----------2-----------2------------------------------|
B|-----3-----------3-----------3------------------------|
G|--2-----2-----2-----2-----0-----0---------------------|
D|------------------------------------------------------|
A|------------------------------------------------------|
E|------------------------------------------------------|


E|-------10---------------------------------------------|
B|--8---------------------------------------------------|
G|------------------------------------------------------|
D|------------------------------------------------------|
A|------------------------------------------------------|
E|------------------------------------------------------|

Other versions of Amnesia

AmnesiaChords
Amnesia (Ver. 2)Chords

↓ Add and view comments below ↓

What do you think about this song and these tabs?

Add your comments, questions, rant or a thumbs up below.

Almost there ...

Sign in to get your own page with links to favourite songs and more. You are just one click away...

Login with Facebook Login with Google