Log in

One click and you are in

Login with Facebook Login with Google

Why sign up and log in

Guitar Tabs Explorer
4 Non Blondes bass tabs for Whats up

Bass tabs

Tuning: EADG (standard)

G |-----------------|-----------------|-----------------|-----------------|
D |-----------------|-----------------|-----------------|-----------------|
A |-----------------|-2---2---2---2---|-5---5---5---5---|-----------------|
E |-12/5----5-------|-----------------|-----------------|-5---5---5---5---|
  1 & 2 & 3 & 4 &  1 & 2 & 3 & 4 &  1 & 2 & 3 & 4 &  1 & 2 & 3 & 4 &


G |-----------------|-----------------|-----------------|-----------------|
D |-----------------|-----------------|-----------------|-----------------|
A |-----------------|-2---2---2---2---|-5---5---5---5---|-----------------|
E |-5---5---5---5---|-----------------|-----------------|-5---5---5---5---|
  1 & 2 & 3 & 4 &  1 & 2 & 3 & 4 &  1 & 2 & 3 & 4 &  1 & 2 & 3 & 4 &

G |-----------------|-----------------|-----------------|-----------------|
D |-----------------|-----------------|-----------------|-----------------|
A |-----------------|-----------------|-----------------|-----------------|
E |-5---5---5---5---|-----------------|-----------------|-----------------|
  1 & 2 & 3 & 4 &  1 & 2 & 3 & 4 &  1 & 2 & 3 & 4 &  1 & 2 & 3 & 4 &

etc....

You can play those tabs, but in fact it's just A, B, D and you can easily play freely between these notes.

Maybe not as perfect as should be, but it sounds nice.

Almost there ...

Sign in to get your own page with links to favourite songs and more. You are just one click away...

Login with Facebook Login with Google