Log in

One click and you are in

Login with Facebook Login with Google

Why sign up and log in

Guitar Tabs Explorer
4 Non Blondes bass tabs for Pleasantly blue

Bass tabs

Form 1

G|------|--------------------------------------------------------------|
D|------|--------------------------------------------------------------|
A|0-----|0-------------------0-------------------0------------------3-4|
E|--3-0-|--3-0-0-0-0-0-0-0-0---3-0-0-0-0-0-0-0-0---3-0-0-0-0-0-0-0-0---|
Form 2

G|--------------------------------------------------------------|
D|---4-2---------0-1-2-2-----------------------4-6-4-------2-4-2|
A|0-0----4-0-0-4---------4-2-------4-2---2-2-6--------0-0-4-----|
E|---------------------------4-0-0-----4------------------------|


Form 3

G|------------------------------------------------------------------------
D|------------------------------------------------------------------------
A|---------0-----------0------------0------------0------------0----------0
E|0-0-0--0---3-0-0-0-0----3-0-0-0-0---3-0-0-0-0----3-0-0-0-0----3-0-0-0-0-


G|----------------------------------------------|
D|----------------------------------------------|
A|----------0------------0------------0---------|
E|3-0-0-0-0----3-0-0-0-0----3-0-0-0-0----3-0-0-0|


Repeat Form 1

Form 4

G|-------------------------------------------------------------------------
D|-------------------------------------------------------------------------
A|--------0-----------0------------0------------0------------0------------0
E|0-0-0-0---3-0-0-0-0----3-0-0-0-0----3-0-0-0-0----3-0-0-0-0----3-0-0-0-0--

G|------------------------------------|
D|------------------------------------|
A|----------0------------0------------|
E|3-0-0-0-0----3-0-0-0-0----3--0-2-3-4|


Form 5

G|------------------------------------------------------------------------
D|---4-2---------0-1-2-2-----------------------4-6-4-------2-4-2----------
A|0-0----4-0-0-4---------4-2-------4-2---2-2-6--------0-0-4---------------
E|---------------------------4-0-0-----4-------------------------0-4-5-6-7


G|------|
D|------|
A|0-----|
E|---3-2|


Form 6

G|-------------------------------------------------------------------------
D|-------------------------------------------------------------------------
A|--------0-----------0------------0------------0------------0------------0
E|0-0-0-0---3-0-0-0-0----3-0-0-0-0----3-0-0-0-0----3-0-0-0-0----3-0-0-0-0--


G|----------------------------|
D|----------------------------|
A|----------0------------0----|
E|3-0-0-0-0----3-0-0-0-0----3-|


Form 7

G|-------------------------------------------------------------------------
D|---4-2---------0-1-2-2-----------------------4-6-4-------2-4-2-----------
A|0-0----4-0-0-4---------4-2-------4-2---2-2-6--------0-0-4----------4-4-2-
E|---------------------------4-0-0-----4-------------------------0-0-------


G|----------------------------------------¦-------------------------------
D|------------------------------4-4-6-4---¦-2-2-0-----------------4-4-6-4-
A|2---------4-4-2-2-----2-2-6-6---------0-¦-------2-0-----2-2-6-6---------
E|--4-4-0-0---------0-0-------------------¦-----------3-0-----------------


G|-----------------------------------------||
D|--------2-2-4-2--------------------------||
A|0-0-4-4---------------------------0------||
E|----------------0-0-4-4-5-5-6-6-7---3-0~-||

End

I know that some parts in this Btab are not like the original, but it
sounds good anyway.

Almost there ...

Sign in to get your own page with links to favourite songs and more. You are just one click away...

Login with Facebook Login with Google