Log in

One click and you are in

Login with Facebook Login with Google

Why sign up and log in

Guitar Tabs Explorer
311 bass tabs for Hydroponic

Bass tabs

Hydroponic' - Bass Tab
Performed by 311
From the album "Music" on Capricorn Records
Music by: C. Sexton
Lyrics by: N. Hexum & D. Martinez
(c) 1995 Allegiance Music/Hydroponic Music BMI
----------
Tabbed by: Damon Eleuterius (damone@mindspring.com)
      Alien (alien@indy.net)
311 Guitar Archive - http://chromosome.colorado.edu/311archive/Home.html

Intro:


G:----------------------------------------------------------------------
D:------------------------------------------------------------------b5b-
A:----------------------------------------------------------------------
E:-0-0-5-5-3--3-1-1-1-0-0-5-5-3--3-1-1-1-0-0-5-5-3--3-1-1-1-0-0-5-5-----

G:--------------------------------------------------------------------------
D:--------------------------------------------------------------------------
A:--------------------------------------------------------------------------
E:-0-0-5-5-3--3-1-1-1-0-0-5-5-3--3-1-1-1-0-0-5-5-3--3-1-1-1-0-0-5-5--3--0-0-


"Mother nature supreme..."


G:--------------------
D:--------------------
A:--------------------
E:-0-0-5-5-3--3-1-1-1- (etc...)

"Everything I eat..."


G:----------------------9-------------------------------------
D:----------------------7-------------------------------------
A:----------------------0--------------------------------------
E:-5-4-2--5-4-2--2-0-2-----2-2-2-2-2-2-0--1--2--2-0-2--0-2-0-2-

G:------------------------
D:------------------------
A:------------------------
E:-2-2-5-4-2-0--0---5-4-2- (etc...)


"Kingdom coming through ya..."


G:-------------------------------------------------------
D:-------------------------------------------------------
A:-------------------------------------------------------
E:-5-0-5--0-5-6-0-6-7--0-7-0-7-7--5--7---8-5--7---8--8-7-

G:--------------------------------------------------
D:--------------------------------------------------
A:--------------------------------------------------
E:-5-0-5--0-5-6-0-6-7--0-7-0-7-7--5--7--8---8--8--7-

"Jumpin' out of my skin..."


G:-----------------------
D:-----------------------
A:-7-7---------7-7-------
E:------5--7--------5--7- (etc...)


The rest of the song repeats using the same parts as above.


== Last Updated: April 20, 1996 ==
ⓘ Bass guitar tab for 'Hydroponic' by 311, an alternative rock band formed in 1988 from Omaha, Nebraska

Almost there ...

Sign in to get your own page with links to favourite songs and more. You are just one click away...

Login with Facebook Login with Google