Log in

One click and you are in

Login with Facebook Login with Google

Why sign up and log in

Guitar Tabs Explorer
311 tabs for Freeze time

Guitar tabs

Band: 311
Album: Sound System (1999)
Music By: Nick Hexum
Lyrics By: Nick Hexum & S.A. Martinez
Tabbed By: Brad Johnson
	   b-rad510@linuxmail.org

tune down 2 1/2 steps (1=B, 2=F#, 3=D, 4=A, 5=E, 6=B)
RIFF 1 (guitar #1)
1:-------------------------|-----------------
2:-------------------------|-----------------
3:-------------------------|---8-7*--7-------  *=pinch
4:---12-11----11-----------|-9-----7---7-6-7-    harmonic
5:-9-10--9-12--9-12-11-12--|-----------------
6:-7-10--9-10--9-10--9-10--|-----------------

			They don't play with 2 guitars when they play

RIFF 1 (guitar #2)	it live, but they have 2 guitars on the cd.
1:-------------------------|-----------------
2:-------------------------|-----------------
3:-------------------------|-----------------
4:-4--------7-----7--6--7--|---7-6---6-------
5:-2--5--4--5--4--5--4--5--|-9-----7---7-6-7-
6:----3--2-----2-----------|-----------------


RIFF 2
1:----------------------------------------------
2:----------------------------------------------
3:----------------------------------------------
4:--------------------------7--7----------------
5:-9-9-------9-9-------9-9--5--5-9-9------------
6:-7-7-------7-7-------7-7-------7-7-pick-slide-

RIFF 3
1:------------------------------------------------------------------
2:------------------------------------------------------------------
3:------------------------------------------------------------------
4:------------------------------------------------------------------
5:-9-12--12--12--12-9-12--12--12--12-9-12-------12-------12-------12
6:-7-10--10--10--10-7-10--10--10--10-7-10-10-10-10-10-10-10-10-10-10

  --------------------
  --------------------
  --------------------
  --------------------
  -9-12--12--12-11-12-
  -7-10--10--10--9-10-


RIFF 4
1:------------------10---------------------------
2:-------------------9---------------------------
3:-----------------------------------------------
4:---------------------------7--7----------------
5:--9-9-------9-9-------9-9--5--5-9-9------------
6:--7-7-------7-7-------7-7-------7-7-pick-slide-


RIFF 5
1:------------------------------------------
2:------------------------------------------
3:------------------------------------------
4:---------------7---7--6--4--6--9--6--4--6-
5:-7-7-7-7-7-7-7-5---5--4--2--4--7--4--2--4-
6:-5-5-5-5-5-5-5----------------------------


RIFF 6
1:-------------------------------------------------------------------
2:-------------------------------------------------------------------
3:-------------------------------------------------------------------
4:-------------------------------------------------------------------
5:-9-12--12--12-11-12-9-12--12--12-11-12-9-12-------12-------12-11-12
6:-7-10--10--10--9-10-7-10--10--10--9-10-7-10-10-10-10-10-10-10--9-10

  ------------------
  ------------------
  ------------------
  ------------------
  -9-12--12--12--12-
  -7-10--10--10--10-


RIFF 7
1:---------------------------------------------------------
2:----------------------11*--11\\-------------------------- *=wide vibrato
3:---------------9-11-12---12------------------------------
4:-------------------------------------7--7----------------
5:-9-9-------9-9------------------9-9--5--5-9-9------------
6:-7-7-------7-7------------------7-7-------7-7-pick-slide-


RIFF 8
1:-----------------------------------------------------------------
2:-----------------------------------------------------------------
3:-----------------------------------------------------------------
4:----------------0---------------0---------------0-------0-------0
5:--7-7-7-7-7-7-7---7-7-7-7-7-7-7---7-7-7-7-7-7-7---7-7-7---7-7-7--
6:--5-5-5-5-5-5-5---5-5-5-5-5-5-5---5-5-5-5-5-5-5---5-5-5---5-5-5--

  ---------------------------------------------------------------
  ---------------------------------------------------------------
  ---------------------------------------------------------------
  ---------------0-----------------7--6--4--6--9--6--4--6-4-4\\\-
  -7-7-7-7-7-7-7---7-7-7-7-7-7-7---5--4--2--4--7--4--2--4-2-2\\\-
  -5-5-5-5-5-5-5---5-5-5-5-5-5-5-5-------------------------------


Well, that's it. Sorry if it looks confusing. I tried to make it look as simple as
possible but with this song, it's really hard to make it look simple. Have fun, and
please rate this!
ⓘ Guitar tab for 'Freeze Time' by 311, an alternative rock band formed in 1988 from Omaha, Nebraska

Almost there ...

Sign in to get your own page with links to favourite songs and more. You are just one click away...

Login with Facebook Login with Google