Log in

One click and you are in

Login with Facebook Login with Google

Why sign up and log in

Guitar Tabs Explorer
311 tabs for Flowing

Guitar tabs

Band: 311
Album: Sound System (1999)
Music By: Nick Hexum
Lyrics By: Nick Hexum
Tabbed By: Brad Johnson
	   b-rad510@linuxmail.org
INTRO
e:--4---3-------2-2--   This part is played with some kind of wierd
B:--4---4---4---2-2--   effect. I think they mess this part up with
G:--5---5---4---4-3--	SA's turntables or something. I just improvise
D:-------------------	and get as close to the real effect as I can.
A:-------------------
E:-------------------


RIFF 1		along the way...
e:--------------------------2--2--2--2--------------
B:--------------------------2--2--2--2--------------
G:--5--5--5--5--5--5--5--5--4--4--4--4--------6--6--
D:--6--6--6--6--5--5--5--5--4--4--4--4--4--4--6--6--
A:--6--6--6--6--3--3--3--3--2--2--2--2--4--4--4--4--
E:--4--4--4--4--3--3--3--3--------------2--2--------

		1. you can't be let down...

RIFF 2		2. tick, tick, tick,...
e:-------------------------------------------
B:-------------------------------------------
G:-------------------------------------------
D:-------------------------------------------
A:--3--4-4-4-5--6-6-6-3-3-3-4--4--5-5-6-6-6--
E:--1--2-2-2-3--4-4-4-1-1-1-2--2--3-3-4-4-4--

		1. if somebody cares...

RIFF 3		2. go away sun...
e:--------------------------------------------------------------------------
B:--------------------------------------------------------------------------
G:--------------------------------------------------------------------------
D:--------------------------------------------------------------------------
A:--8--6--8--6--8--6--8-6--3-3-3-4-4-4-5-5-5-6-6-6-3-3-3-4-4-4-5-5-6-6-6-6--
E:--6--4--6--4--6--4--6-4--1-1-1-2-2-2-3-3-3-4-4-4-1-1-1-2-2-2-3-3-4-4-4-4--

end on...
e:
B:--------
G:--------
D:-4\\\\\-
A:-4\\\\\-
E:-2\\\\\-

This song is VERY easy. The only hard part is getting the rhythm down and even
that is really easy. My band covers this song and it's really fun despite how
easy it is, so have fun.

ⓘ Guitar tab for 'Flowing' by 311, an alternative rock band formed in 1988 from Omaha, Nebraska

Almost there ...

Sign in to get your own page with links to favourite songs and more. You are just one click away...

Login with Facebook Login with Google