Log in

One click and you are in

Login with Facebook Login with Google

Why sign up and log in

Guitar Tabs Explorer
311 bass tabs for Feels so good

Bass tabs with lyrics

Feels so Good' - Bass Tab
Performed by 311
From the album "311" on Capricorn Records
Music by: N. Hexum & C. Sexton
Lyrics by: N. Hexum & D. Martinez
(c) 1995 Allegiance Music/Hydroponic Music BMI
---------------
Tabbed by: Adam Lisowsky (NevrSumr13@aol.com)
      Neil Burton (phunkyman@hotmail.com)
      Ryan Bash (weekletd@flyernet.udayton.edu)
      Josh Irwin (mirwin@tconl.com)
The 311 Guitar Archive -- http://chromosome.colorado.edu/311archive/Home.html

Verse:
1:-----------------------------------------------------------2-
2:-----------------------3--2--0--0--------------3--2--3-------
3:-5--5--5------------------------------------------------5----
4:----------3-3-3--5--5--------------3--4--5--5----------------


[Solo - Version 1:]
The other part follow the guitar exactly, so I'm not going to worry about
tabbing that out....as for the solo it's something like this:

Very Fast
1:--------7----------7----------7----------7-
2:------------x--x-------x--x-------x--x-----
3:-------------------------------------------
4:-0h5---------------------------------------
  (triplet)


[Solo - Version 2:]
(ex: RRL RRL meaning slap righthand righthand lefthand)
Enlarged To show detail vertion:
1:---7-7-x-7-x-7-x-7-x-7-7------|
2:*--7-7-x-7-x-7-x-7-x-7-7--rrl*|<-- slap
3:*--5-5-x-5-x-5-x-5-x-5-5--rrl*|<----^
4:------------------------------|
Repeat one time then...
Slap all strings..rrlr rrlr rrlr rrlr
After that repeat the whole thing over again once.

About 4 times. Then:

1:-----7---5--7--------7---5--7-
2:------------------------------
3:------------------------------
4:-0---------------0------------


[Solo - Version 3:]


G:------------7----------7----------7----------7---------
D:-------------------------------------------------------
A:-------------------------------------------------------
E:-0-h-5--5--------x-x--------x-x--------x-x-------5---5-
B:-------------------------------------------------------
 +    +  *  + +  *  + +  *  + +  *  +  +

 KEY: +=Slap  *=Pop


NOTE: The very beginning of this transcription (up to and including
the first pop at 7 on the G string). This creates p-nut's often used
percussive sound. You should hear 4 seperate sounds (somewhat like
"buddle-a-bup"). Play the above transcription 3 times, then do this:

G:----------7-----5-h-7-
D:----------------------
A:----------------------
E:-0-h-5-5-----x--------
B:----------------------
  +    + * +  *

Repeat 3 times, but don't do the 5-h-7 the 3rd time.


[Version 2:]


Intro & Prechorus
1:---------------------------------------------------------------
2:----------------------7-7-7----------------------3-----------7-
3:-5-5--5-5----------5---------5-5----5-5------------3///5--5----
4:----------3-3-5-5------------------------3-3-5-5---------------

THe middle just doubles the guitar

Beat that thing! (slap and pop)
                 (on fourth repeat add:)
1:-----7-----7-----7-----7---7-7-----|---------7--7-p-5-------
2:---------------------------0-0-----|--------------------7-7-
3:-5-----5-----5-----5-------5-5-----|-----5--------------0-0-
4:-----------------------------------|------------------------


== Last Updated: September 29, 1997 ==
ⓘ Bass guitar tab for 'Feels So Good' by 311, an alternative rock band formed in 1988 from Omaha, Nebraska

Almost there ...

Sign in to get your own page with links to favourite songs and more. You are just one click away...

Login with Facebook Login with Google