Log in

One click and you are in

Login with Facebook Login with Google

Why sign up and log in

Guitar Tabs Explorer
311 bass tabs for Crack the code

Bass tabs

Intro:
G:-----------4-2-0---------------2--0-------------------2—0---------------------------------------
D:------0------------------0h3----------3--------0h3----------3----------------3-----------5------  x2
A:----------------------------------------------------------------------------3------------5-------5--
E:--3-----------------1-----------------------1-----------------------0h1------------3--------------


Verse 1:
G:-----------4-2-0---------------2--0-------------------2—0---------------------------------------
D:------0------------------0h3----------3--------0h3----------3----------------3-----------5------  x4
A:----------------------------------------------------------------------------3------------5-------5--
E:--3-----------------1-----------------------1-----------------------0h1------------3--------------


Verse 2:
G:--------------------------------------------
D:---------3-------------------5------------- x3
A:-----3------3-----3-----5------5-----5---
E:--1------------1------3------------3------


Bridge:
G:-------------------------------------------
D:-------------------------------------------
A:--0-0-0-0-0-0-0-0-0-0-0-0-0-0-0-0--
E:-------------------------------------------


Verse 3:
G:------------------------------------------------------------------------------------------
D:------------------------------------------------------------------------------------------ x4
A:------------------------------------------------------------------------------------------
E:--5-5-5---5-5-5---5-5-5---5-5-5---5-5-5---5-5-5---0-0-0-0-0-0-0-0-0-0-0-0—


Chorus:
G:-------------
D:-------------  x12
A:--5-5---9--
E:-------------


Bridge Out:
G:---------------------
D:---------------------
A:---0-0-0-0-5---7--
E:---------------------




Verse 1:
G:-----------4-2-0---------------2--0-------------------2—0---------------------------------------
D:------0------------------0h3----------3--------0h3----------3----------------3-----------5------  x2
A:----------------------------------------------------------------------------3------------5-------5--
E:--3-----------------1-----------------------1-----------------------0h1------------3--------------


Verse 2:
G:--------------------------------------------
D:---------3-------------------5------------- x3
A:-----3------3-----3-----5------5-----5---
E:--1------------1------3------------3------


Bridge:
G:-------------------------------------------
D:-------------------------------------------
A:--0-0-0-0-0-0-0-0-0-0-0-0-0-0-0-0--
E:-------------------------------------------


Verse 3:
G:------------------------------------------------------------------------------------------
D:------------------------------------------------------------------------------------------ x2
A:------------------------------------------------------------------------------------------
E:--5-5-5---5-5-5---5-5-5---5-5-5---5-5-5---5-5-5---0-0-0-0-0-0-0-0-0-0-0-0—


Chorus:
G:-------------
D:-------------  x12
A:--5-5---9--
E:-------------


Bridge Out:
G:-------------------------
D:-------------------------
A:---0-0-0-0-5---7---3--
E:--------------------------
ⓘ Bass guitar tab for 'Crack The Code' by 311, an alternative rock band formed in 1988 from Omaha, Nebraska

Almost there ...

Sign in to get your own page with links to favourite songs and more. You are just one click away...

Login with Facebook Login with Google