Log in

One click and you are in

Login with Facebook Login with Google

Why sign up and log in

Guitar Tabs Explorer
311 bass tabs for Color

Bass tabs

Color' -- Bass Tab
Performed by 311
From the album "Transistor" on Capricorn/Mercury Records
Music by: C. Sexton
(c) 1997 Hydroponic Music BMI
---------------
Tabbed by: Jeremy Daw (summit@rideau.net)
The 311 Guitar Archive -- http://chromosome.colorado.edu/311archive/Home.html

Riff 1:


G:------------------------------------
D:------------------------------------
A:------------------------------------
E:------------------------------------
B:-5--5--0--0--6--6--5--5--3--3--5--3-


Riff 2a:


G:----------------------------------------------------------------
D:----------------------------------------------------------------
A:--8-------8-------7-------5-------4-------4-------7-------7-----
E:-5-5-55--5-5-55--5-5-55--5-5-55--5-5-55--5-5-55--5-5-55--5-5-55-
B:----------------------------------------------------------------

G:----------------------------------------------------------------
D:--------------------------------------------------2-------2-----
A:--8-------8-------7-------5-------4-------4------3-3-33--3-3-33-
E:-5-5-55--5-5-55--5-5-55--5-5-55--5-5-55--5-5-55-----------------
B:----------------------------------------------------------------


Riff 2b:


G:----------------------------------------------------------------
D:--3-------3-------2-------2-------------------------------------
A:-5-5-55--5-5-55--4-4-44--4-4-44---5-------5-------2-------2-----
E:---------------------------------2-2-22--2-2-22--3-3-33--3-3-33-
B:----------------------------------------------------------------

G:----------------------------------------------------------------
D:----------------------------------------------------------------
A:--2-------2-------5-------5-------2-------2-------5-------5-----
E:-3-3-33--3-3-33--2-2-22--2-2-22--3-3-33--3-3-33--2-2-22--2-2-22-
B:----------------------------------------------------------------


Riff 3:


G:-------------------------------------------------
D:-------------------------------------------------
A:--2-------2-------5-------5--------------5-----4-
E:-3-3-33--3-3-33--2-2-22--2-2-22--3--3------------
B:-------------------------------------------------


== Last Updated: September 18, 1997 ==
ⓘ Bass guitar tab for 'Color' by 311, an alternative rock band formed in 1988 from Omaha, Nebraska

Almost there ...

Sign in to get your own page with links to favourite songs and more. You are just one click away...

Login with Facebook Login with Google