Log in

One click and you are in

Login with Facebook Login with Google

Why sign up and log in

Guitar Tabs Explorer
30 Seconds To Mars bass tabs for This is war

Bass tabs

Verse 1

  Rest


Pre-Chorus 1

G|-------4---4-----|-----------------|-----------------|-------------------|
D|-----4-------4---|-----------------|-----------------|-------------------|
A|-2-2-----------2-|-2-2-X---X-2-4-2-|-4-4-4-4-4-9-9-9-|-9-8-8-11-11-8-9---|
E|-----------------|-----------------|-----------------|-------------------|
G|-------4---4-----|-----------------|-----------------|-----------------|
D|-----4-------4---|-----------------|-----------------|-----------------|
A|-2-2-----------2-|-2-2-X---X-2-4-2-|-4-4-4-4-4-9-9-9-|-9-8-8-4-4-4-4-4-|
E|-----------------|-----------------|-----------------|-----------------|


Chorus 1

G|-----------------|-----------------|-----------------|-----------------|
D|-----------------|-----------------|-----------------|-----------------|
A|-9-9-9-9-9-9-9-9-|-9-9-9-9-9-9-9-9-|-8-8-8-8-8-8-8-8-|-8-8-8-8-8-8-8-8-|
E|-----------------|-----------------|-----------------|-----------------|

G|-----------------|-----------------|-----------------|-----------------|
D|-----------------|-----------------|-----------------|-----------------|
A|-6-6-6-6-6-6-6-6-|---6-6-6-9-9-9-9-|-2-2-2-2-2-2-2-2-|-2-2-2-2-4-4-4-4-|
E|-----------------|-----------------|-----------------|-----------------|

G|-----------------|-----------------|-----------------|-----------------|
D|-----------------|---------8-8-8-8-|-----------------|-----------------|
A|-9-9-9-9-9-9-9-9-|-8-8-8-8---------|-4-4-4-4-4-4-4-4-|-4-4-4-4-8-8-8-8-|
E|-----------------|-----------------|-----------------|-----------------|

G|-----------------|-----------------|-----------------|-----------------|
D|-----------------|-----------------|-----------------|-----------------|
A|-6-6-6-6-6-6-6-6-|-8-8-8-8-9-9-9-9-|-2-2-2-2-2-2-2-2-|-2-2-2-2-4-4-4---|
E|-----------------|-----------------|-----------------|-----------------|

Verse 2

  Rest


Pre-Chorus 2

G|-------4---4-----|-----------------|-----------------|-------------------|
D|-----4-------4---|-----------------|-----------------|-------------------|
A|-2-2-----------2-|-2-2-X---X-2-4-2-|-4-4-4-4-4-9-9-9-|-9-8-8-11-11-8-9---|
E|-----------------|-----------------|-----------------|-------------------|

G|-------4---4-----|-----------------|-----------------|------------------|
D|-----4-------4---|-----------------|-----------------|------------------|
A|-2-2-----------2-|-2-2-X---X-2-4-2-|-4-4-4-4-4-9-9-9-|-9-8-8-16-16------|
E|-----------------|-----------------|-----------------|------------------|


Chorus 2

G|-----------------|-----------------|-----------------|-----------------|
D|-----------------|-----------------|-----------------|-----------------|
A|-9-9-9-9-9-9-9-9-|-9-9-9-9-9-9-9-9-|-8-8-8-8-8-8-8-8-|-8-8-8-8-8-8-8-8-|
E|-----------------|-----------------|-----------------|-----------------|

G|-----------------|-----------------|-----------------|-----------------|
D|-----------------|-----------------|-----------------|-----------------|
A|-6-6-6-6-6-6-6-6-|-6-6-6-6-9-9-9-9-|-2-2-2-2-2-2-2-2-|-2-2-2-2-4-4-4-4-|
E|-----------------|-----------------|-----------------|-----------------|

G|-----------------|-----------------|-----------------|-----------------|
D|-----------------|---------8-8-8-8-|-----------------|-----------------|
A|-9-9-9-9-9-9-9-9-|-8-8-8-8---------|-4-4-4-4-4-4-4-4-|-4-4-4-4-8-8-8-8-|
E|-----------------|-----------------|-----------------|-----------------|

G|-----------------|-----------------|-----------------|-----------------|
D|-----------------|-----------------|-----------------|-----------------|
A|-6-6-6-6-6-6-6-6-|-8-8-8-8-9-9-9-9-|-2-2-2-2-2-2-2-2-|-2-2-2-2-2-2-2-2-|
E|-----------------|-----------------|-----------------|-----------------|

G|-------------------------|-------------------------|
D|-------------------------|-------------------------|
A|-14-14-14-14-14-14-14-14-|-14-16-16-16-16-16-16-16-|
E|-------------------------|-------------------------|


Bridge

  Rest


Chorus 3

G|-----------------|-----------------|-----------------|-----------------|
D|-----------------|-----------------|-----------------|-----------------|
A|-9-9-9-9-9-9-9-9-|-9-9-9-9-9-9-9-9-|-8-8-8-8-8-8-8-8-|-8-8-8-8-8-8-8-8-|
E|-----------------|-----------------|-----------------|-----------------|

G|-----------------|-----------------|-----------------|-----------------|
D|-----------------|-----------------|-----------------|-----------------|
A|-6-6-6-6-6-6-6-6-|-6-6-6-6-9-9-9-9-|-2-2-2-2-2-2-2-2-|-2-2-2-2-4-4-4-4-|
E|-----------------|-----------------|-----------------|-----------------|

G|-----------------|-----------------|-----------------|-----------------|
D|-----------------|---------8-8-8-8-|-----------------|-----------------|
A|-9-9-9-9---9-9-9-|-8-8-8-8---------|-4-4-4-4-4-4-4-4-|-4-4-4-4-8-8-8-8-|
E|-----------------|-----------------|-----------------|-----------------|

G|-----------------|-----------------|-----------------|-----------------|
D|-----------------|-----------------|-----------------|-----------------|
A|-6-6-6-6-6-6-6-6-|-8-8-8-8-9-9-9-9-|-2-2-2-2-2-2-2-2-|-2-2-2-2-2-2-2---|
E|-----------------|-----------------|-----------------|-----------------|

G|-------------------------|-------------------------|
D|-------------------------|-------------------------|
A|-14-14-14-14-14-14-14-14-|-14-14-14-14-14-14-14----|
E|-------------------------|-------------------------|


Chorus 4

G|-----------------|-----------------|-----------------|-----------------|
D|-----------------|-----------------|-----------------|-----------------|
A|-9---------------|-----------------|-4---------------|-----------------|
E|-----------------|-----------------|-----------------|-----------------|

G|-----------------|-----------------|-----------------|-----------------|
D|-----------------|-----------------|-----------------|-----------------|
A|-6---------------|-----------------|-2---------------|-----------------|
E|-----------------|-----------------|-----------------|-----------------|

G|-----------------|-----------------|-----------------|-----------------|
D|-----------------|-----------------|-----------------|-----------------|
A|-9---------------|-----------------|-4---------------|-----------------|
E|-----------------|-----------------|-----------------|-----------------|

G|-----------------|-----------------|-----------------|-----------------|
D|-----------------|-----------------|-----------------|-----------------|
A|-6---------------|-8------9--------|-2---------------|-----------------|
E|-----------------|-----------------|-----------------|-----------------|

G|-----------------|-----------------|
D|-----------------|-----------------|
A|-14--------------|--------16-------|
E|-----------------|-----------------|

Almost there ...

Sign in to get your own page with links to favourite songs and more. You are just one click away...

Login with Facebook Login with Google