Log in

One click and you are in

Login with Facebook Login with Google

Why sign up and log in

Guitar Tabs Explorer
30 Seconds To Mars bass tabs for The kill

Bass tabs

Verse 1

  Bass begins at 0:21

 |-------------------------P.M-------------------------|
G|-------------|-------------|-------------|-------------|
D|-------------|-------------|-------------|-------------|
A|-3-3-3-3-3-3-|-3-3-3-3-3-3-|-3-3-3-3-3-3-|-3-3-3-3-3-3-|
E|-------------|-------------|-------------|-------------|

 |-------------------------P.M-------------------------|
G|-------------|-------------|-------------|-------------|
D|-------------|-------------|-------------|-------------|
A|-5-5-5-5-5-5-|-5-5-5-5-5-5-|-5-5-5-5-5-5-|-5-5-5-5-5-5-|
E|-------------|-------------|-------------|-------------|

 |-------------------------P.M-------------------------|
G|-------------|-------------|-------------|-------------|
D|-------------|-------------|-------------|-------------|
A|-7-7-7-7-7-7-|-7-7-7-7-7-7-|-7-7-7-7-7-7-|-7-7-7-7-7-7-|
E|-------------|-------------|-------------|-------------|

G|-------------|-------------|-------------------|-------------------|
D|-------------|-------------|-------------------|-------------------|
A|-2-2-2-2-2-2-|-2-2-2-2-2-2-|-14-14-14-14-14-14-|-14-14-14-14-14-14-|
E|-------------|-------------|-------------------|-------------------|


Chorus 1

G|-------------|-------------|-------------|-------------|
D|-------------|-------------|-------------|-------------|
A|-3---3-3-3-3-|-3-3-3-3-3-3-|-3---3-3-3-3-|-3-3-3-3-3-3-|
E|-------------|-------------|-------------|-------------|

G|-------------|-------------|-------------|-------------|
D|-------------|-------------|-------------|-------------|
A|-5-5-5-5-5-5-|-5-5-5-5-5-5-|-5-5-5-5-5-5-|-5-5-5-5-5-5-|
E|-------------|-------------|-------------|-------------|

G|-------------|-------------|-------------|-------------------|
D|-------------|-------------|-------------|-------------------|
A|-7-7-7-7-7-7-|-7-7-7-7-7-7-|-9-9-9-9-9-9-|-10-10-10-10-10-10-|
E|-------------|-------------|-------------|-------------------|

G|-------------|------------------|-------------|-------------|
D|-------------|------------------|-------------|-------------|
A|-2-2-2-2-2-2-|-14-14-14-14-14-0-|-2-2-2-2-2-2-|-2-----------|
E|-------------|------------------|-------------|-------------|

Verse 2

  |-------------------------P.M------------------------|
G|-------------|-------------|-------------|-------------|
D|-------------|-------------|-------------|-------------|
A|-3-3-3-3-3-3-|-3-3-3-3-3-3-|-3-3-3-3-3-3-|-3-3-3-3-3-3-|
E|-------------|-------------|-------------|-------------|

 |-------------------------P.M-------------------------|
G|-------------|-------------|-------------|-------------|
D|-------------|-------------|-------------|-------------|
A|-5-5-5-5-5-5-|-5-5-5-5-5-5-|-5-5-5-5-5-5-|-5-5-5-5-5-5-|
E|-------------|-------------|-------------|-------------|

 |-------------------------P.M-------------------------|
G|-------------|-------------|-------------|-------------|
D|-------------|-------------|-------------|-------------|
A|-7-7-7-7-7-7-|-7-7-7-7-7-7-|-7-7-7-7-7-7-|-7-7-7-7-7-7-|
E|-------------|-------------|-------------|-------------|

 |--------------------P.M--------------------|
G|-------------|-------------|-------------|-------------|
D|-------------|-------------|-------------|-------------|
A|-2-2-2-2-2-2-|-2-2-2-2-2-2-|-2-2-2-2-2-2-|-2-0-0-0-0-0-|
E|-------------|-------------|-------------|-------------|

G|-------------|-5-----------|-------------|-5-----------|
D|-------------|-------------|-------------|-------------|
A|-3-3-3-3-3-3-|---3-3-3-3-3-|-3-3-3-3-3-3-|---3-3-3-3-3-|
E|-------------|-------------|-------------|-------------|

G|-------------|-7-----------|-------------|-7-----------|
D|-------------|-------------|-------------|-------------|
A|-5-5-5-5-5-5-|---5-5-5-5-5-|-5-5-5-5-5-5-|---5-5-5-5-5-|
E|-------------|-------------|-------------|-------------|

G|-------------|-9-----------|-------------|-9-----------|
D|-------------|-------------|-------------|-------------|
A|-7-7-7-7-7-7-|---7-7-7-7-7-|-7-7-7-7-7-7-|---7-7-7-7-7-|
E|-------------|-------------|-------------|-------------|

G|-------------|-----------------|-------------|-------------------|
D|-------------|-----------------|-------------|-------------------|
A|-2---2-2-2---|-14--14-14-14-14-|-2-2-2-2-2-2-|-14-14-14-14-14-14-|
E|-------------|-----------------|-------------|-------------------|


Chorus 2

G|-------------|-------------|-------------|-------------|
D|-------------|-------------|-------------|-------------|
A|-3---3-3-3-3-|-3-3-3-3-3-3-|-3---3-3-3-3-|-3-3-3-3-3-3-|
E|-------------|-------------|-------------|-------------|

G|-------------|-------------|-------------|-------------|
D|-------------|-------------|-------------|-------------|
A|-5-5-5-5-5-5-|-5-5-5-5-5-5-|-5-5-5-5-5-5-|-5-5-5-5-5-5-|
E|-------------|-------------|-------------|-------------|

G|-------------|-------------|-------------|-------------------|
D|-------------|-------------|-------------|-------------------|
A|-7-7-7-7-7-7-|-7-7-7-7-7-7-|-9-9-9-9-9-9-|-10-10-10-10-10-10-|
E|-------------|-------------|-------------|-------------------|

G|-------------|-------------|-------------------|------------------|
D|-------------|-------------|-------------------|------------------|
A|-2-2-2-2-2-2-|-2-2-2-2-2-2-|-14-14-14-14-14-14-|14-14-14-14-14-14-|
E|-------------|-------------|-------------------|------------------|

G|-------------|-------------|-------------|-------------|
D|-------------|-------------|-------------|-------------|
A|-3---3-3-3-3-|-3-3-3-3-3-3-|-3---3-3-3-3-|-3-3-3-3-3-3-|
E|-------------|-------------|-------------|-------------|

G|-------------|-------------|-------------------|--------------|
D|-------------|-------------|-------------------|--------------|
A|-5-5-5-5-5-5-|-5-5-5-5-5-5-|-12-12-12-10-10-10-|-9-9-9-9-9-10-|
E|-------------|-------------|-------------------|--------------|

G|-------------|-------------|-------------|-------------|
D|-------------|-------------|-------------|-------------|
A|-7-7-7-7-7-7-|-7-7-7-7-7-7-|-7-7-7-7-7-7-|-7-7-7-7-7-7-|
E|-------------|-------------|-------------|-------------|

G|-------------|-----------------|-------------|-------------------|
D|-------------|-----------------|-------------|-------------------|
A|-2-2---2---2-|-14-14---14---14-|-2-2---2---2-|-14-14-12-12-15-15-|
E|-------------|-----------------|-------------|-------------------|


Bridge

G|-------------|-------------|-------------|-------------|
D|-------------|-------------|-------------|-------------|
A|-0-0-0-0-0-0-|-0-0-0-0-0-0-|-2-2-2-2-2-2-|-2-2-2-2-2-2-|
E|-------------|-------------|-------------|-------------|

G|-------------|-------------|-------------|-------------|
D|-------------|-------------|-------------|-------------|
A|-------------|-------------|-------------|-------------|
E|-0-0-0-0-0-0-|-0-0-0-0-0-0-|-0-0-0-0-0-0-|-0-0-0-0-0-0-|

G|-------------|-------------|-------------|-------------|
D|-------------|-------------|-------------|-------------|
A|-3-3-3-3-3-3-|-3-3-3-3-3-3-|-5-5-5-5-5-5-|-5-5-5-5-5-5-|
E|-------------|-------------|-------------|-------------|

G|-------------|-------------|---------------|-------------------|
D|-------------|-------------|---------------|-------------------|
A|-7-7-X-X-X-X-|-9-9-X-X-X-X-|-10-10-X-X-X-X-|-12-12-12-12-10-12-|
E|-------------|-------------|---------------|-------------------|

G|------------------|-------------------|-------------|------------------|
D|------------------|-------------------|-------------|------------------|
A|-15---15-15-15-15-|-15-15-15-15-15-15-|-2-2-2-2-2-2-|-2-17-17-17-17-17-|
E|------------------|-------------------|-------------|------------------|

G|-------------|-------------|-------------|-------------|
D|-------------|-------------|-------------|-------------|
A|-7-7-7-7-7-7-|-7-7-7-7-7-7-|-7-7-7-7-7-7-|-7-7-7-7-7-7-|
E|-------------|-------------|-------------|-------------|

G|-------------|-------------|-------------|-------------|
D|-------------|-------------|-------------|-------------|
A|-3-3-3-3-3-3-|-3-3-3-3-3-3-|-5-5-5-5-5-5-|-5-5-5-5-5-5-|
E|-------------|-------------|-------------|-------------|

G|-------------|-------------|-------------|-------------|
D|-------------|-------------|-------------|-------------|
A|-7-7-X-X-X-X-|-7-7-X-X-X-X-|-7-7-X-X-X-X-|-7---7---7---|
E|-------------|-------------|-------------|-------------|

  Bass comes in at 2:39

G|------------------|-------------------|-------------------|-------------|
D|------------------|-------------------|-------------------|-------------|
A|-12---12-12-12-12-|-12-12-12-12-12-12-|-10-10-10-10-10-10-|-9-9-9-9-----|
E|------------------|-------------------|-------------------|-------------|


Chorus 3

G|-------------|-------------|-------------|-------------|
D|-------------|-------------|-------------|-------------|
A|-3-3-3-3-3-3-|-3-3-3-3-3-3-|-3-3-3-3-3-3-|-3-3-3-3-3-3-|
E|-------------|-------------|-------------|-------------|

G|-------------|-------------|-------------|-------------|
D|-------------|-------------|-------------|-------------|
A|-5-5-5-5-5-5-|-5-5-5-5-5-5-|-5-5-5-5-5-5-|-5-5-5-5-5-5-|
E|-------------|-------------|-------------|-------------|

G|-------------|-------------|-------------|-------------------|
D|-------------|-------------|-------------|-------------------|
A|-7-7-7-7-7-7-|-7-7-7-7-7-7-|-9-9-9-9-9-9-|-10-10-10-10-10-10-|
E|-------------|-------------|-------------|-------------------|

G|-------------|-------------------|-------------|-------------------|
D|-------------|-------------------|-------------|-------------------|
A|-2-2-2-2-2-2-|-14-14-14-14-14-14-|-2-2-2-2-2-2-|-14-14-14-14-14-14-|
E|-------------|-------------------|-------------|-------------------|

G|-------------|-------------|-------------|-------------|
D|-------------|-------------|-------------|-------------|
A|-3-3-3-3-3-3-|-3-3-3-3-3-3-|-3-3-3-3-3-3-|-3-3-3-3-3-3-|
E|-------------|-------------|-------------|-------------|

G|-------------|-------------|-------------------|--------------|
D|-------------|-------------|-------------------|--------------|
A|-5-5-5-5-5-5-|-5-5-5-5-5-5-|-12-12-12-10-10-10-|-9-9-9-9-9-10-|
E|-------------|-------------|-------------------|--------------|

G|-------------|-------------|-------------|-------------|
D|-------------|-------------|-------------|-------------|
A|-7-7-7-7-7-7-|-7-7-7-7-7-7-|-7-7-7-7-7-7-|-7-7-7-7-7-7-|
E|-------------|-------------|-------------|-------------|

G|----------------|-------------|----------------|-------------|
D|----------------|-------------|----------------|-------------|
A|-14----14-14-14-|-2-----2-2-2-|-14----14-14-14-|-2-2-2-2-2-2-|
E|----------------|-------------|----------------|-------------|


Chorus 4

G|-------------|-------------|-------------|-------------|
D|-------------|-------------|-------------|-------------|
A|-3---3-3-----|-3---3-3-----|-3---3-3-----|-3---3---3---|
E|-------------|-------------|-------------|-------------|

G|-------------|-------------|-------------|-------------|
D|-------------|-------------|-------------|-------------|
A|-5---5-5-----|-5---5-5-----|-5-5---5---5-|-5-5---5---5-|
E|-------------|-------------|-------------|-------------|

G|-------------|-------------|-------------|-------------|
D|-------------|-------------|-------------|-------------|
A|-7---7-7-----|-7---7-7-----|-7---7-7-----|-7---7---7---|
E|-------------|-------------|-------------|-------------|

G|----------------|-------------|----------------|-------------|
D|----------------|-------------|----------------|-------------|
A|-14----14-14-14-|-2-----2-2-2-|-14----14-14-14-|-2---2-2-2---|
E|----------------|-------------|----------------|-------------|


Outro

  Rest



Alternative Outro (this follows the guitar part by Shannon)

G|-12p9-----------|-12p9-----------|-12p9-----------|-12p9-----------|
D|------10p9----9-|------10p9----9-|------10p9----9-|------10p9----9-|
A|-----------10---|-----------10---|-----------10---|-----------10---|
E|----------------|----------------|----------------|----------------|

G|--------12-----|--------12-----|--------12-----|--------12-----|
D|-9h10p9--------|-9h10p9--------|-9h10p9--------|-9h10p9--------|
A|---------------|---------------|---------------|---------------|
E|---------------|---------------|---------------|---------------|

G|-12p9-----------|-12p9-----------|-12p9-----------|-12p9-----------|
D|------10p9----9-|------10p9----9-|------10p9----9-|------10p9----9-|
A|-----------10---|-----------10---|-----------10---|-----------10---|
E|----------------|----------------|----------------|----------------|

G|--------12-----|--------12-----|--------14-----|--------16-----|
D|-9h10p9--------|-9h10p9--------|-9h10p9--------|-9h10p9--------|
A|---------------|---------------|---------------|---------------|
E|---------------|---------------|---------------|---------------|

Almost there ...

Sign in to get your own page with links to favourite songs and more. You are just one click away...

Login with Facebook Login with Google