Log in

One click and you are in

Login with Facebook Login with Google

Why sign up and log in

Guitar Tabs Explorer
30 Seconds To Mars tabs for Hurricane

Guitar tabs

Standard tuning (EADGBE)

First tab i've done so bear with me. I've tabbed the basis of the song and it
sounds pretty good to me.

Can add effects and such to jazz it up. Apart from that, near perfect I would say ;-)

Intro/Verse 1 (00:08-01:09)
--------------------      --------------------|
-----------------4--      --------------764---|
--356356356356356---      --356356356356---6--|
--------------------      --------------------|
--------------------  x3  --------------------|  } Repeat both parts x4
--------------------      --------------------|


Pre chorus  (01:12-01:18)
------------------------------------|
------------------------------------|
------------------------------------|
------------------------------------|
------------------------------------|
-------------4------1---------------|


Chorus (01:19-01:50)
------------------------------------|
------------------------------------|
------------------3333333333333333--|
--44444444666666663333333333333333--|
--44444444666666661111111111111111--|  x4
--2222222244444444------------------|


Verse 2 (01:54-02:05)
--------------------      --------------------|
-----------------4--      --------------764---|
--356356356356356---      --356356356356---6--|
--------------------      --------------------|
--------------------  x2  --------------------|
--------------------      --------------------|


"There is a fire inside..." (02:06-02:20)
-----------------------------------------|
--------------------------------7-6-4----|
------------------------------3----------|
--------------------------------------6--|
-----------------------------------------|
--6------2------6------2-----------------|


"Ooooooo...." (02:20-03:06)
-----------------------------------------|
-----------------------------------------|
-----------------------------------------|
-----------------------------------------|
-------4--4----4--4-----4--4----4--4-----|
-----66--6---66--6----22--2---22--2------|  x6


Chorus (03:07-03:34)
------------------------------------      --------------------|
------------------------------------      --------------------|
------------------3333333333333333--      --------------------|
--44444444666666663333333333333333--      --4444444466666666--|
--44444444666666661111111111111111--  x3  --4444444466666666--|
--2222222244444444------------------      --2222222244444444--|


"The promises...." (03:45-04:14)
------------------------------------|
------------------------------------|
------------------------------------|
--3333333333333333------------------|
--11111111111111114444444444444444--|  x4
------------------2222222222222222--|
Pm................................


"Never giving in again...." (04:15-04:22)
------------------------------------|
------------------------------------|
------------------------------------|
------------------------------------|
------------------------------------|
-------------4------1---------------|


Chorus (04:23-05:55)
------------------------------------|
------------------------------------|
------------------3333333333333333--|
--44444444666666663333333333333333--|
--44444444666666661111111111111111--|  } Repeat several times
--2222222244444444------------------|


(05:55-06:03)
-----------------------------6---------|
--76-76-7--76-76-7--76-76-7--------67--|
----6--6-----6--6-----6--6----35656----|
---------------------------------------|
---------------------------------------|  } Not too sure about this bit
---------------------------------------|


....and that's all there is too it. Reletavely simple to play and sounds epic. Enjoy :-)

Other versions of Hurricane

HurricaneChords
Hurricane (Ver. 2)Tabs

Almost there ...

Sign in to get your own page with links to favourite songs and more. You are just one click away...

Login with Facebook Login with Google