Log in

One click and you are in

Login with Facebook Login with Google

Why sign up and log in

Guitar Tabs Explorer
30 Seconds To Mars bass tabs for Closer to the edge

Closer To The Edge bass tab by 30 Seconds To Mars

30 Seconds To Mars bass tabs for Closer to the edge

Bass tabs

Intro

  Rest


Verse 1

  Rest
Chorus 1
                                      __
G|-----------------|-----------------|-----------------|-----------------|  |
D|-----------------|-----------------|-----------------|-----------------|  |
A|-----------------|-----------------|-----------------|-----------------|  |
E|-2---2---2---2---|-2---2---2---2---|-2---2---2---2---|-2---2---2-4-4-4-|  |
                                       |
G|-----------------|-----------------|-----------------|-----------------|  |
D|-----------------|-----------------|-----------------|-----------------|  |
A|-----------------|-----------------|-----------------|-----------------|  |
E|-6---6---6---6---|-6---6---6---6---|-6---6---6---6---|-6---6---6---6---|  |
                                       | x2
G|-----------------|-----------------|-----------------|-----------------|  |
D|-----------------|-----------------|-----------------|-4---4---4---4---|  |
A|-6---6---6---6---|-6---6---6---6---|-4---4---4---4---|-----------------|  |
E|-----------------|-----------------|-----------------|-----------------|  |
                                       |
G|-----------------|-----------------|-----------------|-----4-4-4-6-6-6-|  |
D|-----------------|-----------------|-----------------|-----------------|  |
A|-2---2---2---2---|-2---2---2---2---|-2---2---2---2---|-2---------------|  |
E|-----------------|-----------------|-----------------|-----------------| __|

After-Chorus 1

  No Bass

Verse 2

G|-----------------|-----------------|-----------------|-----------------|
D|-----------------|-----------------|-----------------|-----------------|
A|-----------------|-----------------|-----------------|-----------------|
E|-2---2---2---2---|-----2---2---2---|-2---2---2---2---|-----6-6-6-4-2-2-|

G|-----------------|-----------------|-----------------|-----------------|
D|-----------------|-----------------|-----------------|-----------------|
A|-----------------|-----------------|-----------------|-------------4-4-|
E|-6---6---6---6---|-----6-------6---|-6---6---6---6---|-----6-6-6-6-----|

G|-----------------|-----------------|-----------------|-----------------|
D|-----------------|-----------------|-----------------|-----------------|
A|-6---6---6---6---|-----6-------6---|-4---4---4---4---|-----4-4-4-2-2-4-|
E|-----------------|-----------------|-----------------|-----------------|

G|-----------------|-----------------|-----------------|-----------------|
D|-----------------|-----------------|-----------------|-----------------|
A|-2---2---2---2---|-----2-------2---|-2---2---2---2---|-2---2-2-2-2-2-2-|
E|-----------------|-----------------|-----------------|-----------------|

G|-----------------|-----------------|-----------------|-----------------|
D|-----------------|-----------------|-----------------|-----------------|
A|-----------------|-----------------|-----------------|-----------------|
E|-2---2---2---2---|-----2-------2---|-2---2---2---2---|-----6-6-6-4-2-2-|

G|-----------------|-----------------|-----------------|-----------------|
D|-----------------|-----------------|-----------------|-----------------|
A|-----------------|-----------------|-----------------|-------------4-4-|
E|-6---6---6---6---|-----6-------6---|-6---6---6---6---|-----6-6-6-6-----|

G|-----------------|-----------------|-----------------|-----------------|
D|-----------------|-----------------|-----------------|-----------------|
A|-6---6---6---6---|-----6-------6---|-4---4---4---4---|-----4-4-4-2-2-4-|
E|-----------------|-----------------|-----------------|-----------------|

G|-----------------|-----------------|-----------------|-----------------|
D|-----------------|-----------------|-----------------|-----------------|
A|-2---2---2---2---|-----2-------2---|-2---2---2---2---|-----2-----2-2-2-|
E|-----------------|-----------------|-----------------|-----------------|


Chorus 2

G|-----------------|-----------------|-----------------|-----------------|
D|-----------------|-----------------|-----------------|---------4-4-4-4-|
A|-----------------|-----------------|-----------------|-----------------|
E|-2---2---2---2---|-2---2---2---2---|-2---2---2---2---|-2---2-----------|

G|-----------------|-----------------|-----------------|-----------------|
D|-----------------|-----------------|-----------------|-----------------|
A|-----------------|-----------------|-----------------|-----------------|
E|-6---6---6---6---|-6---6---6---6---|-6---6---6---6---|-6---6---6---6---|

G|-----------------|-----------------|-----------------|-----------------|
D|-----------------|-----------------|-----------------|-----------------|
A|-6---6---6---6---|-6---6---6---6---|-4---4---4---4---|-4---4---4---4---|
E|-----------------|-----------------|-----------------|-----------------|

G|-----------------|-----------------|-----------------|-----4-4-4-6-6-6-|
D|-----------------|-----------------|-----------------|-----------------|
A|-2---2---2---2---|-2---2---2---2---|-2---2---2---2---|-2---------------|
E|-----------------|-----------------|-----------------|-----------------|

G|-----------------|-----------------|-----------------|-----------------|
D|-----------------|-----------------|-----------------|---------4-4-4-4-|
A|-----------------|-----------------|-----------------|-----------------|
E|-2---2---2---2---|-2---2---2---2---|-2---2---2---2---|-2---2-----------|

G|-----------------|-----------------|-----------------|-----------------|
D|-----------------|-----------------|-----------------|-----------------|
A|-----------------|-----------------|-----------------|-----------------|
E|-6---6---6---6---|-6---6---6---6---|-6---6---6---6---|-6---6---6---6---|

G|-----------------|-----------------|-----------------|-----------------|
D|-----------------|-----------------|-----------------|-----------------|
A|-6---6---6---6---|-6---6---6---6---|-4---4---4---4---|-4---4---4---4---|
E|-----------------|-----------------|-----------------|-----------------|

G|-----------------|-----------------|-----------------|-----4-4-4-6-6-6-|
D|-----------------|-----------------|-----------------|-----------------|
A|-2---2---2---2---|-2---2---2---2---|-2---2---2---2---|-2---------------|
E|-----------------|-----------------|-----------------|-----------------|


Bridge

  No Bass


Chorus 3

  Repeat Chorus 2


Chorus 4

  Repeat Chorus 2


Outro

G|-----------------|-----------------|-----------------|-----------------|
D|-----------------|-----------------|-----------------|---------4-4-4-4-|
A|-----------------|-----------------|-----------------|-----------------|
E|-2---2---2---2---|-2---2---2---2---|-2---2---2---2---|-2---2-----------|

G|-----------------|-----------------|-----------------|-----------------|
D|-----------------|-----------------|-----------------|-----------------|
A|-----------------|-----------------|-----------------|-----------------|
E|-6---6---6---6---|-6---6---6---6---|-6---6---6---6---|-6---6---6---6---|

G|-----------------|-----------------|-----------------|-----------------|
D|-----------------|-----------------|-----------------|-----------------|
A|-6---6---6---6---|-6---6---6---6---|-4---4---4---4---|-4---4---4---4---|
E|-----------------|-----------------|-----------------|-----------------|

G|-----------------|-----------------|-----------------|-----4-4-4-6-6-6-|
D|-----------------|-----------------|-----------------|-----------------|
A|-2---2---2---2---|-2---2---2---2---|-2---2---2---2---|-2---------------|
E|-----------------|-----------------|-----------------|-----------------|

Almost there ...

Sign in to get your own page with links to favourite songs and more. You are just one click away...

Login with Facebook Login with Google