Log in

One click and you are in

Login with Facebook Login with Google

Why sign up and log in

Guitar Tabs Explorer
30 Seconds To Mars bass tabs for Attack

Bass tabs

Intro

G|-------------------------|----------------------17-|-------------------------|---------------------17--|
D|-------17----18-17-15----|-17----15-17----15-------|-------17----18-17-15----|-17----15-17----15-------|
A|-------------------------|-------------------------|-------------------------|-------------------------|
E|-16-16----16----------16-|----16-------16----16----|-15-15----15----------15-|---15-------15----15-----|
G|-------------------------|----------------------17-|-------------------------|---------------------17--|
D|-------17----18-17-15----|-17----15-17----15-------|-------17----18-17-15----|-17----15-17----15-------|
A|-------------------------|-------------------------|-------------------------|-------------------------|
E|-13-13----13----------13-|----13-------13----13----|-13-13----13----------13-|----13-------13----13----|


Verse 1

G|-------------------------|-------------------------|-------------------------|-------------------------|
D|-------------------------|-------------------------|-------------------------|-------------------------|
A|-11-11-11-11-11-11-11-11-|-11-11-11-11-11-11-11-11-|-10-10-10-10-10-10-10-10-|-10-10-10-10-10-10-10-10-|
E|-------------------------|-------------------------|-------------------------|-------------------------|

G|-----------------|-----------------|-----------------|-----------------|
D|-----------------|-----------------|-----------------|-----------------|
A|-8-8-8-8-8-8-8-8-|-8-8-8-8-8-8-8-8-|-8-8-8-8-8-8-8-8-|-8-8-8-8-8-8-8-8-|
E|-----------------|-----------------|-----------------|-----------------|

G|-----------------|-----------------|-----------------|-----------------|
D|-----------------|-----------------|-----------------|-----------------|
A|-4-4-4-4-4-4-4-4-|-4-4-4-4-4-4-4-4-|-6-6-6-6-6-6-6-6-|-6-6-6-6-6-6-6-6-|
E|-----------------|-----------------|-----------------|-----------------|

G|-----------------|-----------------|-----------------|-----------------|
D|-----------------|-----------------|-----------------|-----------------|
A|-8-8-8-8-8-8-8-8-|-8-8-8-8-8-8-8-8-|-----------------|-----------------|
E|-----------------|-----------------|-----------------|-----------------|

Chorus 1

G|-----------------|------------------------|-----------------|------------------------|
D|-----------------|------------------------|-----------------|------------------------|
A|-4-4-4-4-4-4-4-4-|-4-11-11-11-11-10-10-10-|-6-6-6-6-6-6-6-6-|-6-11-11-11-11-10-10-10-|
E|-----------------|------------------------|-----------------|------------------------|

G|-----------------|-----------------|-----------------|-----------------|
D|-----------------|-----------------|-----------------|-----------------|
A|-8-8-8-8-8-8-8-8-|-8-8-8-8-8-8-8-8-|-3-3-3-3-3-3-3-3-|-3-3-3-3-3-1-1-1-|
E|-----------------|-----------------|-----------------|-----------------|

G|-----------------|------------------------|-----------------|------------------------|
D|-----------------|------------------------|-----------------|------------------------|
A|-4-4-4-4-4-4-4-4-|-4-11-11-11-11-10-10-10-|-6-6-6-6-6-6-6-6-|-6-11-11-11-11-10-10-10-|
E|-----------------|------------------------|-----------------|------------------------|

G|-----------------|-----------------|-------------------------|-------------------------|
D|-----------------|-----------------|-------------------------|-------------------------|
A|-8-----8-----8---|-8-----8-----8---|-15-15-15-15-15-15-15-15-|-15-15-15-15-15-15-15-15-|
E|-----------------|-----------------|-------------------------|-------------------------|

After-Chorus

G|----------------------------------------------17----------------------------------------|
D|-------17----18-17-15----17----15-17----15----------------------------------------------|
A|----------------------------------------------------------------------------------------|
E|-16-16----16----------16----16-------16----16-------------------------------------------|


Verse 2

G|-------------------------|-------------------------|-------------------------|-------------------------|
D|-------------------------|-------------------------|-------------------------|-------------------------|
A|-11-11-11-11-11-11-11-11-|-11-11-11-11-11-11-13-13-|-10-10-10-10-10-10-10-10-|-10-10-10-10-10-10-10-10-|
E|-------------------------|-------------------------|-------------------------|-------------------------|

G|-----------------|-----------------|-----------------|-----------------|
D|-----------------|-----------------|-----------------|-----------------|
A|-8-8-8-8-8-8-8-8-|-8-8-8-8-8-8-8-8-|-----------------|-----------------|
E|-----------------|-----------------|-----------------|-----------------|

G|-----------------|-----------------|-----------------|-----------------|
D|-----------------|-----------------|-----------------|-----------------|
A|-4-4-4-4-4-4-4-4-|-4-4-4-4-4-4-4-4-|-6-6-6-6-6-6-6-6-|-6-6-6-6-6-6-6-6-|
E|-----------------|-----------------|-----------------|-----------------|

G|-----------------|-----------------|-----------------|-----------------|
D|-----------------|-----------------|-----------------|-----------------|
A|-8-8-8-8-8-8-8-8-|-8-8-8-8-8-8-8-8-|-----------------|-----------------|
E|-----------------|-----------------|-----------------|-----------------|


Chorus 2

G|-----------------|------------------------|-----------------|------------------------|
D|-----------------|------------------------|-----------------|------------------------|
A|-4---4-4-4-4-4-4-|-4-11-11-11-11-10-10-10-|-6-6-6-6-6-6-6-6-|-6-11-11-11-11-10-10-10-|
E|-----------------|------------------------|-----------------|------------------------|

G|-----------------|--------------------|-----------------|-----------------|
D|-----------------|--------------------|-----------------|-----------------|
A|-8-8-8-8-8-8-8-8-|-8-8-8-8-8-11-10-11-|-3---3-3-3-3-3-3-|-3-3-3-1-----1---|
E|-----------------|--------------------|-----------------|-----------------|

G|-----------------|------------------------|-----------------|------------------------|
D|-----------------|------------------------|-----------------|------------------------|
A|-4-4-4-4-4-4-4-4-|-4-11-11-11-11-10-10-10-|-6-6-6-6-6-6-6-6-|-6-11-11-11-11-10-10-10-|
E|-----------------|------------------------|-----------------|------------------------|

G|-----------------|-----------------|-------------------------|-------------------------|
D|-----------------|-----------------|-------------------------|-------------------------|
A|-8-----8-----8---|-8-----8-----8---|-15-15-15-15-15-15-15-15-|-15-15-15-15-15-15-15-15-|
E|-----------------|-----------------|-------------------------|-------------------------|


Bridge

G|-------------------------|----------------------17-|-------------------------|---------------------17--|
D|-------17----18-17-15----|-17----15-17----15-------|-------17----18-17-15----|-17----15-17----15-------|
A|-------------------------|-------------------------|-------------------------|-------------------------|
E|-16-16----16----------16-|----16-------16----16----|-15-15----15----------15-|---15-------15----15-----|

G|-------------------------|----------------------17-|-------------------------|---------------------17--|
D|-------17----18-17-15----|-17----15-17----15-------|-------17----18-17-15----|-17----15-17----15-------|
A|-------------------------|-------------------------|-------------------------|-------------------------|
E|-13-13----13----------13-|----13-------13----13----|-13-13----13----------13-|----13-------13----13----|


G|-------------------------|----------------------17-|-------------------------|---------------------17--|
D|-------17----18-17-15----|-17----15-17----15-------|-------17----18-17-15----|-17----15-17----15-------|
A|-16-16----16----------16-|----16-------16----16----|-18-18----18----------18-|---18-------18----18-----|
E|-------------------------|-------------------------|-------------------------|-------------------------|

G|-------------------------|-------------------------|-----------------|-----------------|
D|----17-18----18-17-15----|-17----15-17----15----18-|-----------------|-----------------|
A|-15-------15----------15-|---15-------15----15-----|-----------------|-----------------|
E|-------------------------|-------------------------|-----------------|-----------------|


Chorus 3

G|-----------------|------------------------|-----------------|------------------------|
D|-----------------|------------------------|-----------------|------------------------|
A|-4-4-4-4-4-4-4-4-|-4-11-11-11-11-10-10-10-|-6-6-6-6-6-6-6-6-|-6-11-11-11-11-10-10-10-|
E|-----------------|------------------------|-----------------|------------------------|

G|-----------------|-----------------|-----------------|-----------------|
D|-----------------|-----------------|-----------------|-----------------|
A|-8-8-8-8-8-8-8-8-|-8-8-8-8-8-8-8-8-|-3-3-3-3-3-3-3-3-|-3-3-3-3-3-1-1-1-|
E|-----------------|-----------------|-----------------|-----------------|

G|-----------------|------------------------|-----------------|------------------------|
D|-----------------|------------------------|-----------------|------------------------|
A|-4-4-4-4-4-4-4-4-|-4-11-11-11-11-10-10-10-|-6-6-6-6-6-6-6-6-|-6-11-11-11-11-10-10-10-|
E|-----------------|------------------------|-----------------|------------------------|

G|-----------------|-----------------|-------------------------|-------------------------|
D|-----------------|-----------------|-------------------------|-------------------------|
A|-8-8-8-8-8-8-8-8-|-8-8-8-8-8-8-8-8-|-15-15-15-15-15-15-15-15-|-15-15-15-15-15-15-15-15-|
E|-----------------|-----------------|-------------------------|-------------------------|


Chorus 4

  Repeat Chorus 3


Outro

G|-------------------------|-------------------------|-------------------------|-------------------------|
D|-------------------------|-------------------------|-------------------------|-------------------------|
A|-11-11-11-11-11-11-11-11-|-11-11-11-11-11-11-13-13-|-10-10-10-10-10-10-10-10-|-10-10-10-10-10-10-10-10-|
E|-------------------------|-------------------------|-------------------------|-------------------------|

G|-----------------|-----------------|-----------------|-----------------|
D|-----------------|-----------------|-----------------|-----------------|
A|-8-8-8-8-8-8-8-8-|-8-8-8-8-8-8-8-8-|-8-8-8-8-8-8-8-8-|-8-8-8-8-8-8-8-8-|
E|-----------------|-----------------|-----------------|-----------------|

G|-----------------|-----------------|-----------------|-----------------|
D|-----------------|-----------------|-----------------|-----------------|
A|-4-4-4-4-4-4-4-4-|-4-4-4-4-4-4-4-4-|-6-6-6-6-6-6-6-6-|-6-6-6-6-6-6-6-6-|
E|-----------------|-----------------|-----------------|-----------------|

G|-----------------|-----------------|-----------------|-----------------|
D|-----------------|-----------------|-----------------|-----------------|
A|-8-8-8-8-8-8-8-8-|-8-8-8-8-8-8-8-8-|-8---------------|-----------------|
E|-----------------|-----------------|-----------------|-----------------|

Almost there ...

Sign in to get your own page with links to favourite songs and more. You are just one click away...

Login with Facebook Login with Google