Log in

One click and you are in

Login with Facebook Login with Google

Why sign up and log in

Guitar Tabs Explorer
3 Doors Down bass tabs for Duck and run

Bass tabs

  • Difficulty: Intermediate
🎸 Intro:

G|------------------|---------------------------------------------------------|
D|------------------|---------------------------------------------------------|
A|---REST x2-----9/5|5h7-777-----------------x10------------------------------|
E|------------------|---------7-8-7-5-78--------------------------------------|


🎸 Verse 1: (To this world I am  )

G|---------------------------------------------------------------------------|
D|---------------------------------------------------------------------------|
A|--5h7-777-----------------x8-----------------------------------------------|
E|----------7-8-7-5-78-------------------------------------------------------|


🎸 Chorus:

G|----------------------------------------------------|---------------------------|
D|----------------------------------------------------|---------------------------|
A|-7--77-10-10-9-7------------------10-10-9-7---------|-7------------------x3-----|
E|-----------------8--8-87-78-10-0-------------8--8-7-8-|---7-8-7-5h7h8p7p5-------|

G|------------------|
D|------------------|
A|--7---------------|
E|----7-8-8888/-----|


🎸 Verse 2:

G|---------------------------------------------------------------------------|
D|---------------------------------------------------------------------------|
A|--5h7-777-----------------x8-----------------------------------------------|
E|----------7-8-7-5-78-------------------------------------------------------|


🎸 Chorus:

G|---------------------------------------------------------|
D|---------------------------------------------------------| x2
A|-7--77-10-10-9-7-----------------10-10-9-7---------------|
E|-----------------8--8-87-78-10-0-------------8--8-77-88-7|


🎸 Bridge:

G|-------------------|---------------------|
D|-------------------|---------------------|  x2
A|-7---7------10-9/12|-7---7---------------|
E|---7---7-78--------|---7---78-7-5-7h8p7h8|

🎸 Solo:

G|---------------------------------------------------------------------------|
D|---------------------------------------------------------------------------|
A|--5h7-777-----------------x8-----------------------------------------------|
E|----------7-8-7-5-78-------------------------------------------------------|


🎸 Pre-Chorus:

G|--------------------|
D|--------------------|
A|--77777-------------|   x4
E|----------7-8-7-5-78|


🎸 Outro:

G|---------------------------------------------------------|
D|---------------------------------------------------------| x2
A|-7--77-10-10-9-7-----------------10-10-9-7---------------|
E|-----------------8--8-87-78-10-0-------------8--8-77-88-7|


************************************

| x Dead note
| h Hammer-on
| / Slide up
| p Pull-off

************************************
ⓘ Bass guitar tab for 'Duck And Run' by 3 Doors Down, an alternative rock band formed in 1996 from Escatawpa, Mississippi, USA. 3 Doors Down is known for their sentimental rock/pop music.

Almost there ...

Sign in to get your own page with links to favourite songs and more. You are just one click away...

Login with Facebook Login with Google