Log in

One click and you are in

Login with Facebook Login with Google

Why sign up and log in

Guitar Tabs Explorer
2pac bass tabs for Picture me rollin

Bass tabs

Tuning: Standard (E A D G)


Main riff:
G|------------7----------------------------|
D|--------------------5----------7---------|
A|-----5-----5-5---------------------------|
E|-----------------------------------------|


G|------------7----------------------------|
D|--------------------5----------7---------|
A|-----5-----5-5---------------------------|
E|-----------------------------------------|

G|------------7----------------------------|
D|--------------------5----------7---------|
A|-----5-----5-5---------------------------|
E|-----------------------------------------|


This was tabbed just listening to the song but
it’s easy to work out what the bass notes are.
Just listen to the song and you can work out
the timings !

Almost there ...

Sign in to get your own page with links to favourite songs and more. You are just one click away...

Login with Facebook Login with Google