Log in

One click and you are in

Login with Facebook Login with Google

Why sign up and log in

Guitar Tabs Explorer
2pac bass tabs for Only god can judge me

Bass tabs

  • Difficulty: Intermediate
Tuning: Standard (E A D G)

🎸 Intro:

G|--------------------------------|--------------------------------|
D|--------------------------------|--------------------------------|
A|--------4-------0h2-------------|0h2-----2---4---5-------4-------| x2
E|2.----------2-------------------|--------------------------------|
 1 e + a 2 e + a 3 e + a 4 e + a |1 e + a 2 e + a 3 e + a 4 e + a |

Verse, 0:10:

G|--------------------------------|--------------------------------|
D|--------------------------------|--------------------------------|
A|--------4-------0h2-------------|0h2-----2---4---5-------4-------| x10
E|2.----------2-------------------|--------------------------------|
 1 e + a 2 e + a 3 e + a 4 e + a |1 e + a 2 e + a 3 e + a 4 e + a |


Chorus, 1:05:

G|--------------------------------|--------------------------------|
D|--------------------------------|--------------------------------|
A|5\------------5\4---------------|--------------------------------|
E|------------5-------------------|2-------------------/---\-------|
 1 e + a 2 e + a 3 e + a 4 e + a |1 e + a 2 e + a 3 e + a 4 e + a |

G|--------------------------------|--------------------------------|
D|--------------------------------|------------------4-----6h7-----|
A|5-----------5---4---------4-----|----------------4---------------|
E|--------5---------------5---5-4-|2-----------2-------------------|
 1 e + a 2 e + a 3 e + a 4 e + a |1 e + a 2 e + a 3 e + a 4 e + a |

G|--------------------------------|--------------------------------|
D|--------------------------------|------------------2-4---4-6-7---|
A|5-----------5---4---------------|--------------4-4---------------|
E|--------5-----------------x-5-x-|2-------------------------------|
 1 e + a 2 e + a 3 e + a 4 e + a |1 e + a 2 e + a 3 e + a 4 e + a |

G|--------------------------------|--------------------------------|
D|--------------------------------|4-------------------------------|
A|5-----------5---4-----------2-4-|--------------------------------|
E|--------5-----------------------|--------------------------------|
 1 e + a 2 e + a 3 e + a 4 e + a |1 e + a 2 e + a 3 e + a 4 e + a |

Verse, 1:25:

G|--------------------------------|--------------------------------|
D|--------------------------------|--------------------------------|
A|--------4-------0h2-------------|0h2-----2---4---5-------4-------|
E|2-----------2-------------------|--------------------------------| x10
 1 e + a 2 e + a 3 e + a 4 e + a |1 e + a 2 e + a 3 e + a 4 e + a |


Chorus, 2:18:

G|--------------------------------|--------------------------------|
D|--------------------------------|--------------------------------|
A|4/5---------5---4---------4-----|--------------------------------|
E|--------5---------------4-------|2---------------2-/(9)--\-------|
 1 e + a 2 e + a 3 e + a 4 e + a |1 e + a 2 e + a 3 e + a 4 e + a |

G|--------------------------------|--------------------------------|
D|--------------------------------|4-----------2-4-7---6---4-6-----|
A|5-----------5---4-----------2-4-|--------------------------------|
E|--------5-----------------------|--------------------------------|
 1 e + a 2 e + a 3 e + a 4 e + a |1 e + a 2 e + a 3 e + a 4 e + a |

G|--------------------------------|--------------------------------|
D|--------------------------------|4-------------------------------|
A|5-----------5---4-----------2-4-|------------------4-------------|
E|--------5-----------------------|--------------x-5---5-4-2-------|
 1 e + a 2 e + a 3 e + a 4 e + a |1 e + a 2 e + a 3 e + a 4 e + a |

G|---------------P10v-------------|--------------------------------|
D|--------------------------------|4-------------------------------|
A|5-----------------------------4-|--------------------------------|
E|--------5---10--9---------------|--------------------/---\-------|
 1 e + a 2 e + a 3 e + a 4 e + a |1 e + a 2 e + a 3 e + a 4 e + a |

Interlude, 2:40:

G|--------------------------------|--------------------------------|
D|--------------------------------|--------------------------------|
A|--------------------------------|------------------------2-4-5---|
E|2-------------------------------|4-------------------------------|
 1 e + a 2 e + a 3 e + a 4 e + a |1 e + a 2 e + a 3 e + a 4 e + a |

G|--------------------------------|--------------------------------|
D|--------------------------------|--------------------------------|
A|--------------------------------|4-------------------------------|
E|2-------------------------------|------------------x-/---\-------|
 1 e + a 2 e + a 3 e + a 4 e + a |1 e + a 2 e + a 3 e + a 4 e + a |


Verse, 2:50:

G|--------------------------------|--------------------------------|
D|--------------------------------|--------------------------------|
A|--------4-------0h2-------------|0h2-----2---4---5-------4-------|
E|2-----------2-------------------|--------------------------------| x10
 1 e + a 2 e + a 3 e + a 4 e + a |1 e + a 2 e + a 3 e + a 4 e + a |


Verse, 3:44:

G|--------------------------------|--------------------------------|
D|--------------------------------|--------------------------------|
A|--------4-------0h2-------------|0h2-----2---4---5-------4-------|
E|2-----------2-------------------|--------------------------------| x2
 1 e + a 2 e + a 3 e + a 4 e + a |1 e + a 2 e + a 3 e + a 4 e + a |


Chorus, 3:54:

G|--------------------------------|--------------------------------|
D|--------------------------------|--------------------------------|
A|4/5---------5---4---------4-----|------------------4-------------|
E|--------5---------------4---5-4-|2-----------2-/-5---4-2---------|
 1 e + a 2 e + a 3 e + a 4 e + a |1 e + a 2 e + a 3 e + a 4 e + a |

G|--------------------------------|--------------------------------|
D|------------------------2---2-3-|4w----------4-6-7---4-----------|
A|5-----------5---4---------4-----|------------------------7---4---|
E|--------5-----------------------|--------------------------------|
 1 e + a 2 e + a 3 e + a 4 e + a |1 e + a 2 e + a 3 e + a 4 e + a |

G|--------------------------------|--------------------------------|
D|--------------------------------|------------------2---5---------|
A|5-----------5---4-----------4---|----------------4---------------|
E|--------5-----------------------|2---------x-2-------------------|
 1 e + a 2 e + a 3 e + a 4 e + a |1 e + a 2 e + a 3 e + a 4 e + a |

G|--------------------------------|--------------------------------|
D|-----------------------------P2h|4-------------------------------|
A|5-------------------------------|--------------------------------|
E|--------5---10--9---------------|------------------------9\------|
 1 e + a 2 e + a 3 e + a 4 e + a |1 e + a 2 e + a 3 e + a 4 e + a |


Verse, 4:16:

G|--------------------------------|--------------------------------|
D|--------------------------------|--------------------------------|
A|--------4-------0h2-------------|0h2-----2---4---5-------4-------|
E|2.----------2-------------------|--------------------------------| x6
 1 e + a 2 e + a 3 e + a 4 e + a |1 e + a 2 e + a 3 e + a 4 e + a |


************************************
| / Slide up
| \ Slide down
| p Pull off
| h Hammer on
| P Pop
| v Vibrato
| w Wiggle - slide up a fret and back a couple times, fast

************************************

Almost there ...

Sign in to get your own page with links to favourite songs and more. You are just one click away...

Login with Facebook Login with Google