Log in

One click and you are in

Login with Facebook Login with Google

Why sign up and log in

Guitar Tabs Explorer
2pac bass tabs for Do for love

Bass tabs

2 pac – Do for love


G |-----------------|-----------------|-----------------|---------------|
D |-----------------|-----------------|-----------------|---------------|
A |---------19------|----------16-----|---------17------|----------15---|
E |17-17-17---------|15-15-15---------|16-16-16-----16--|14-14-14-------|
  1 & 2 & 3 & 4 &  1 & 2 & 3 & 4 &  1 & 2 & 3 & 4 &  1 & 2 & 3 & 4
G |-----------------|-----------------|-----------------|-----------------|
D |-----------------|-----------------|-----------------|-----------------|
A |----------19-----|---------16------|---------17------|----------15-----|
E |17-17-17---------|15-15-15---------|16-16-16---------|14-14-14---------|
  1 & 2 & 3 & 4 &  1 & 2 & 3 & 4 &  1 & 2 & 3 & 4 &  1 & 2 & 3 & 4 &


2pac - Untill the end of time


Intro

G |-------------------|
D |-------------------|
A |2---2---2----2-----|
E |-------------------|
  1 & 2 & 3 & 4 &


G |-----------------|------------------|-----------------|------------------|
D |-----------------|------------------|-----------------|------------------|
A |-------4---------|---------4----2---|--------4--------|--------4----2----|
E |2-2--------2-----|-2-2--------------|2-2----------2---|2-2---------------|
  1 & 2 & 3 & 4 &  1 & 2 & 3 & 4 &  1 & 2 & 3 & 4 &  1 & 2 & 3 & 4 &


G |-----------------|-----------------|-----------------|-----------------|
D |-----------------|-----------------|--------5---8----|--------5--------|
A |--------5--8-----|--------5--------|8-8--------------|8-8-------8------|
E |8-8--------------|8-8---------8----|-----------------|-----------------|
  1 & 2 & 3 & 4 &  1 & 2 & 3 & 4 &  1 & 2 & 3 & 4 &  1 & 2 & 3 & 4 &


Outro


G |-----------------|-----------------|-----------------|-----------------|
D |-----------------|-----------------|-----------------|-----------------|
A |--------5--8-----|--------5--------|--------5----8---|---------5-------|
E |8-8--------------|8-8---------8----|8-8--------------|8-8---------8----|
  1 & 2 & 3 & 4 &  1 & 2 & 3 & 4 &  1 & 2 & 3 & 4 &  1 & 2 & 3 & 4 &


G |-----------------|------------------|----------------|-----------------|
D |-----------------|------------------|--------5---8---|--------5--------|
A |--------5--8-----|--------5---------|8-8-------------|8-8-------8------|
E |8-8--------------|8-8---------8-----|----------------|-----------------|
  1 & 2 & 3 & 4 &  1 & 2 & 3 & 4 &  1 & 2 & 3 & 4 &  1 & 2 & 3 & 4 &



2pac-letter to my unborn child


G |-----------------|-----------------|-----------------|----------------|
D |-----------------|-----------------|-----------------|----------------|
A |-----------------|-----------------|-----------------|----------------|
E |2---2------------|5---5------------|1---1------------|4---4---------4-|
  1 & 2 & 3 & 4 &  1 & 2 & 3 & 4 &  1 & 2 & 3 & 4 &  1 & 2 & 3 & 4 &


G |-----------------|-----------------|-----------------|----------------|
D |-----------------|-----------------|-----------------|----------------|
A |-----------------|-----------------|-----------------|----------------|
E |1---1------------|4-----4----------|2-----2----------|5-----5-------5-|
  1 & 2 & 3 & 4 &  1 & 2 & 3 & 4 &  1 & 2 & 3 & 4 &  1 & 2 & 3 & 4 &

Almost there ...

Sign in to get your own page with links to favourite songs and more. You are just one click away...

Login with Facebook Login with Google