Log in

One click and you are in

Login with Facebook Login with Google

Why sign up and log in

Guitar Tabs Explorer
24kGoldn chords for Mood ukulele

Guitar chords with lyrics

Tuning: G C E A (G C E A)

🎸 Intro:
A|-------------------|----------------------|
E|-3-3-1-1/6---6-----|-10-8--8/10-5---5-----|
C|-3-3-3-3/7---7-----|-10-10------5---5-----|
G|-------------------|----------------------|
  1 + 2 +  3 + 4 +  1 + 2  + 3 + 4 +


A|-------------------|------------3---3-----|
E|-3-3-1-1/6---6-----|-10-8--8/10-5---5-----|
C|-3-3-3-3/7---7-----|-10-10------5---5-----|
G|-------------------|----------------------|
  1 + 2 +  3 + 4 +  1 + 2  + 3 + 4 +


🎸 Chorus:
Why you always in a mood? Fuckin' 'round, actin' brand new
I ain't tryna tell you what to do, but try to play it
A|-------------------|----------------------|
E|-3-3-1-1/6---6-----|-10-8--8/10-5---5-----|
C|-3-3-3-3/7---7-----|-10-10------5---5-----|
G|-------------------|----------------------|
  1 + 2 +  3 + 4 +  1 + 2  + 3 + 4 +

cool... Baby, I ain't playing by your rules
Everything look better with a view
A|-------------------|------------3---3-----|
E|-3-3-1-1/6---6-----|-10-8--8/10-5---5-----|
C|-3-3-3-3/7---7-----|-10-10------5---5-----|
G|-------------------|----------------------|
  1 + 2 +  3 + 4 +  1 + 2  + 3 + 4 +

Why you always in a mood? Fuckin' 'round, actin' brand new
I ain't tryna tell you what to do, but try to play it
A|-------------------|----------------------|
E|-3-3-1-1/6---6-----|-10-8--8/10-5---5-----|
C|-3-3-3-3/7---7-----|-10-10------5---5-----|
G|-------------------|----------------------|
  1 + 2 +  3 + 4 +  1 + 2  + 3 + 4 +

cool... Baby, I ain't playing by your rules
Everything look better with a view, yeah
A|-------------------|------------3---3-----|
E|-3-3-1-1/6---6-----|-10-8--8/10-5---5-----|
C|-3-3-3-3/7---7-----|-10-10------5---5-----|
G|-------------------|----------------------|
  1 + 2 +  3 + 4 +  1 + 2  + 3 + 4 +


🎸 Verse 1:
I could never get attached
When I start to feel, I unattach
Somehow I always end up feeling bad
A|-------------------|----------------------|
E|-3-3-1-1/6---6-----|-10-8--8/10-5---5-----|
C|-3-3-3-3/7---7-----|-10-10------5---5-----|
G|-------------------|----------------------|
  1 + 2 +  3 + 4 +  1 + 2  + 3 + 4 +

Baby, I am not your dad, it's not all you want from me
I just want your company
A|-------------------|------------3---3-----|
E|-3-3-1-1/6---6-----|-10-8--8/10-5---5-----|
C|-3-3-3-3/7---7-----|-10-10------5---5-----|
G|-------------------|----------------------|
  1 + 2 +  3 + 4 +  1 + 2  + 3 + 4 +

Girl, it's obvious, elephant in the room
And we're a part of it, don't act so confused
A|-------------------|----------------------|
E|-3-3-1-1/6---6-----|-10-8--8/10-5---5-----|
C|-3-3-3-3/7---7-----|-10-10------5---5-----|
G|-------------------|----------------------|
  1 + 2 +  3 + 4 +  1 + 2  + 3 + 4 +

And you love startin' it, now I'm in a mood
Now we arguin' in my bedroom
A|-------------------|------------3---3-----|
E|-3-3-1-1/6---6-----|-10-8--8/10-5---5-----|
C|-3-3-3-3/7---7-----|-10-10------5---5-----|
G|-------------------|----------------------|
  1 + 2 +  3 + 4 +  1 + 2  + 3 + 4 +


🎸 Pre-Chorus:
We play games of love to avoid the depression
A|-------------------|----------------------|
E|-3-3-1-1/6---6-----|-10-8--8/10-5---5-----|
C|-3-3-3-3/7---7-----|-10-10------5---5-----|
G|-------------------|----------------------|
  1 + 2 +  3 + 4 +  1 + 2  + 3 + 4 +

We been here before and I won't be your victim
A|-------------------|------------3---3-----|
E|-3-3-1-1/6---6-----|-10-8--8/10-5---5-----|
C|-3-3-3-3/7---7-----|-10-10------5---5-----|
G|-------------------|----------------------|
  1 + 2 +  3 + 4 +  1 + 2  + 3 + 4 +


🎸 Chorus:
Why you always in a mood? Fuckin' 'round, actin' brand new
I ain't tryna tell you what to do, but try to play it
A|-------------------|----------------------|
E|-3-3-1-1/6---6-----|-10-8--8/10-5---5-----|
C|-3-3-3-3/7---7-----|-10-10------5---5-----|
G|-------------------|----------------------|
  1 + 2 +  3 + 4 +  1 + 2  + 3 + 4 +

cool... Baby, I ain't playing by your rules
Everything look better with a view
A|-------------------|------------3---3-----|
E|-3-3-1-1/6---6-----|-10-8--8/10-5---5-----|
C|-3-3-3-3/7---7-----|-10-10------5---5-----|
G|-------------------|----------------------|
  1 + 2 +  3 + 4 +  1 + 2  + 3 + 4 +

Why you always in a mood? Fuckin' 'round, actin' brand new
I ain't tryna tell you what to do, but try to play it
A|-------------------|----------------------|
E|-3-3-1-1/6---6-----|-10-8--8/10-5---5-----|
C|-3-3-3-3/7---7-----|-10-10------5---5-----|
G|-------------------|----------------------|
  1 + 2 +  3 + 4 +  1 + 2  + 3 + 4 +

cool... Baby, I ain't playing by your rules
Everything look better with a view
A|-------------------|------------3---3-----|
E|-3-3-1-1/6---6-----|-10-8--8/10-5---5-----|
C|-3-3-3-3/7---7-----|-10-10------5---5-----|
G|-------------------|----------------------|
  1 + 2 +  3 + 4 +  1 + 2  + 3 + 4 +


🎸 Verse 2:
So why you tryin' to fake your love on the regular
When you could be blowin' up just like my cellular?
A|-------------------|----------------------|
E|-3-3-1-1/6---6-----|-10-8--8/10-5---5-----|
C|-3-3-3-3/7---7-----|-10-10------5---5-----|
G|-------------------|----------------------|
  1 + 2 +  3 + 4 +  1 + 2  + 3 + 4 +

I won't ever let a shorty go and set me up
Only thing I need to know is if you wet enough
A|-------------------|------------3---3-----|
E|-3-3-1-1/6---6-----|-10-8--8/10-5---5-----|
C|-3-3-3-3/7---7-----|-10-10------5---5-----|
G|-------------------|----------------------|
  1 + 2 +  3 + 4 +  1 + 2  + 3 + 4 +

I'm talking slick back, kick back, gang sippin' fourties
You keep playin', not another day with you, shorty
A|-------------------|----------------------|
E|-3-3-1-1/6---6-----|-10-8--8/10-5---5-----|
C|-3-3-3-3/7---7-----|-10-10------5---5-----|
G|-------------------|----------------------|
  1 + 2 +  3 + 4 +  1 + 2  + 3 + 4 +

Mismatched fits, that was way before you know me
Got a lot of love, well, you better save it for me
A|-------------------|------------3---3-----|
E|-3-3-1-1/6---6-----|-10-8--8/10-5---5-----|
C|-3-3-3-3/7---7-----|-10-10------5---5-----|
G|-------------------|----------------------|
  1 + 2 +  3 + 4 +  1 + 2  + 3 + 4 +


🎸 Pre-Chorus:
We play games of love to avoid the depression
A|-------------------|----------------------|
E|-3-3-1-1/6---6-----|-10-8--8/10-5---5-----|
C|-3-3-3-3/7---7-----|-10-10------5---5-----|
G|-------------------|----------------------|
  1 + 2 +  3 + 4 +  1 + 2  + 3 + 4 +

We been here before and I won't be your victim
A|-------------------|------------3---3-----|
E|-3-3-1-1/6---6-----|-10-8--8/10-5---5-----|
C|-3-3-3-3/7---7-----|-10-10------5---5-----|
G|-------------------|----------------------|
  1 + 2 +  3 + 4 +  1 + 2  + 3 + 4 +


🎸 Chorus:
Why you always in a mood? Fuckin' 'round, actin' brand new
I ain't tryna tell you what to do, but try to play it
A|-------------------|----------------------|
E|-3-3-1-1/6---6-----|-10-8--8/10-5---5-----|
C|-3-3-3-3/7---7-----|-10-10------5---5-----|
G|-------------------|----------------------|
  1 + 2 +  3 + 4 +  1 + 2  + 3 + 4 +

cool... Baby, I ain't playing by your rules
Everything look better with a view
A|-------------------|------------3---3-----|
E|-3-3-1-1/6---6-----|-10-8--8/10-5---5-----|
C|-3-3-3-3/7---7-----|-10-10------5---5-----|
G|-------------------|----------------------|
  1 + 2 +  3 + 4 +  1 + 2  + 3 + 4 +

Why you always in a mood? Fuckin' 'round, actin' brand new
I ain't tryna tell you what to do, but try to play it
A|-------------------|----------------------|
E|-3-3-1-1/6---6-----|-10-8--8/10-5---5-----|
C|-3-3-3-3/7---7-----|-10-10------5---5-----|
G|-------------------|----------------------|
  1 + 2 +  3 + 4 +  1 + 2  + 3 + 4 +

cool... Baby, I ain't playing by your rules
Everything look better with a view
A|-------------------|------------3---3-----|
E|-3-3-1-1/6---6-----|-10-8--8/10-5---5-----|
C|-3-3-3-3/7---7-----|-10-10------5---5-----|
G|-------------------|----------------------|
  1 + 2 +  3 + 4 +  1 + 2  + 3 + 4 +


************************************

| / Slide up

************************************
ⓘ Guitar chords for 'Mood Ukulele' by 24kGoldn, a male hip-hop artist from San Francisco, California, U.S. 24kGoldn was born in 2000.

Almost there ...

Sign in to get your own page with links to favourite songs and more. You are just one click away...

Login with Facebook Login with Google