Log in

One click and you are in

Login with Facebook Login with Google

Why sign up and log in

Guitar Tabs Explorer
20 Minute Crash tabs for Crazy freakn biker

Guitar tabs

Band: 20 Minute Crash
Album: N/A
This is yes! the tab you've been looking for everywhere!
It's the theme to the Espn Show CFB and it's great. It sounds
right to me! Have fun kids!
Intro (main thing)
Drum fill...
e-------------------------------------------
B-------------------------------------------
G--------------------------(9)-9-9---------- x4
D-999--(12)-12-12--(7)-7-7-(9)-9-9----------
A-999--(12)-12-12--(7)-7-7-(7)-7-7----------
E-777--(10)-10-10--(5)-5-5------------------


Verse
e-------------------------------------------
B---9----9-------(9)--9h10------------------
G----(9)--(9)------------------------------- x4
D-99----9------99----9----------------------
A-------------------------------------------
E-------------------------------------------


Verse 2
e-------------------------------------------
B-------------------------------------------
G-------------------------------------------x4
D-77h9--99h7--------------------------------
A-------------------------------------------
E-------------------------------------------


INTRO 2x


Outro
e-------------------------------------------
B-------------------------------------------
G-9999--------------------------------------
D-9999--(stoccato)--------------------------
A-7777--------------------------------------
E-....--------------------------------------

That's all folks.  Put the pieces together and it'll work!

Almost there ...

Sign in to get your own page with links to favourite songs and more. You are just one click away...

Login with Facebook Login with Google