Log in

One click and you are in

Login with Facebook Login with Google

Why sign up and log in

Guitar Tabs Explorer
The 1975 guitar tabs for Me and you together song

Guitar tabs

Intro:
e|--x-x-x-x-x--|--2-2-2-2-2-0-0-0--0-0--|--2-2-2-2-2-2-0-0-0--0-0--|
B|--x-x-x-x-x--|--3-3-3-3-3-3-3-3--3-3--|--3-3-3-3-3-3-3-3-3--3-3--|
G|--x-x-x-x-x--|--2-2-2-2-2-2-2-2--2-2--|--2-2-2-2-2-2-2-2-2--2-2--|
D|--x-x-x-x-x--|--0-0-0-0-0-0-0-0--0-0--|--0-0-0-0-0-0-0-0-0--0-0--|
A|--x-x-x-x-x--|------------------------|--------------------------|
E|--x-x-x-x-x--|------------------------|--------------------------|

e|--2-2-2-2-2-0-0-0--0-0--|--2-2-2-2-2-2-0-0-0--0-0--|--2-2-2-2-2-0-0-0--0-0--|--2-2-2-2-2-2-0-0-0--0-0--|
B|--3-3-3-3-3-3-3-3--3-3--|--3-3-3-3-3-3-3-3-3--3-3--|--3-3-3-3-3-3-3-3--3-3--|--3-3-3-3-3-3-3-3-3--3-3--|
G|--2-2-2-2-2-2-2-2--2-2--|--2-2-2-2-2-2-2-2-2--2-2--|--2-2-2-2-2-2-2-2--2-2--|--2-2-2-2-2-2-2-2-2--2-2--|
D|--0-0-0-0-0-0-0-0--0-0--|--0-0-0-0-0-0-0-0-0--0-0--|--0-0-0-0-0-0-0-0--0-0--|--0-0-0-0-0-0-0-0-0--0-0--|
A|------------------------|--------------------------|------------------------|--------------------------|
E|------------------------|--------------------------|------------------------|--------------------------|

e|--2-2-2-2-2-0-0-0--0-0--|--2-2-2-2-2-2-0-0-0-------|
B|--3-3-3-3-3-3-3-3--3-3--|--3-3-3-3-3-3-3-3-3--3----|
G|--2-2-2-2-2-2-2-2--2-2--|--2-2-2-2-2-2-2-2-2-(2)---|
D|--0-0-0-0-0-0-0-0--0-0--|--0-0-0-0-0-0-0-0-0-------|
A|------------------------|--------------------------|
E|------------------------|--------------------------|


Verse 1:
e|--2-2-2-2-2-0-0-0--0-0--|--2-2-2-2-2-2-0-0-0--0-0--|--2-2-2-2-2-0-0-0--0-0--|--2-2-2-2-2-2-0-0-0--0-0--|
B|--3-3-3-3-3-3-3-3--3-3--|--3-3-3-3-3-3-3-3-3--3-3--|--3-3-3-3-3-3-3-3--3-3--|--3-3-3-3-3-3-3-3-3--3-3--|
G|--2-2-2-2-2-2-2-2--2-2--|--2-2-2-2-2-2-2-2-2--2-2--|--2-2-2-2-2-2-2-2--2-2--|--2-2-2-2-2-2-2-2-2--2-2--|(x4)
D|--0-0-0-0-0-0-0-0--0-0--|--0-0-0-0-0-0-0-0-0--0-0--|--0-0-0-0-0-0-0-0--0-0--|--0-0-0-0-0-0-0-0-0--0-0--|
A|------------------------|--------------------------|------------------------|--------------------------|
E|------------------------|--------------------------|------------------------|--------------------------|


Chorus 1:
e|----0-------0-------0-------0----|----0-------0-------0-------0-2--|
B|------3-------3-------3-------3--|------3-------3-------3----------|
G|---------------------------------|---------------------------------|
D|--0-------0-------0-------0------|--0-------0-------0-------0------|
A|---------------------------------|---------------------------------|
E|---------------------------------|---------------------------------|

e|----0-------0-------0-------0----|----0-------0-2-----0-------0----|
B|------3-------3-------3-------3--|------3---------------3-------3--|
G|---------------------------------|---------------------------------|
D|--0-------0-------0-------0------|--0-------0-------0-------0------|
A|---------------------------------|---------------------------------|
E|---------------------------------|---------------------------------|


Verse 2:
e|--2-2-2-2-2-0-0-0--0-0--|--2-2-2-2-2-2-0-0-0--0-0--|--2-2-2-2-2-0-0-0--0-0--|--2-2-2-2-2-2-0-0-0--0-0--|
B|--3-3-3-3-3-3-3-3--3-3--|--3-3-3-3-3-3-3-3-3--3-3--|--3-3-3-3-3-3-3-3--3-3--|--3-3-3-3-3-3-3-3-3--3-3--|
G|--2-2-2-2-2-2-2-2--2-2--|--2-2-2-2-2-2-2-2-2--2-2--|--2-2-2-2-2-2-2-2--2-2--|--2-2-2-2-2-2-2-2-2--2-2--|(x4)
D|--0-0-0-0-0-0-0-0--0-0--|--0-0-0-0-0-0-0-0-0--0-0--|--0-0-0-0-0-0-0-0--0-0--|--0-0-0-0-0-0-0-0-0--0-0--|
A|------------------------|--------------------------|------------------------|--------------------------|
E|------------------------|--------------------------|------------------------|--------------------------|


Chorus 2:
e|----0-------0-------0-------0----|----0-------0-------0-------0-2--|
B|------3-------3-------3-------3--|------3-------3-------3----------|
G|---------------------------------|---------------------------------|
D|--0-------0-------0-------0------|--0-------0-------0-------0------|
A|---------------------------------|---------------------------------|
E|---------------------------------|---------------------------------|

e|----0-------0-------0-------0----|----0-------0-2-----0-------0----|
B|------3-------3-------3-------3--|------3---------------3-------3--|
G|---------------------------------|---------------------------------|
D|--0-------0-------0-------0------|--0-------0-------0-------0------|
A|---------------------------------|---------------------------------|
E|---------------------------------|---------------------------------|


Bridge:
e|--2-2-2-2-2-0-0-0--0-0--|--2-2-2-2-2-2-0-0-0--0-0--|--2-2-2-2-2-0-0-0--0-0--|--2-2-2-2-2-2-0-0-0--0-0--|
B|--3-3-3-3-3-3-3-3--3-3--|--3-3-3-3-3-3-3-3-3--3-3--|--3-3-3-3-3-3-3-3--3-3--|--3-3-3-3-3-3-3-3-3--3-3--|
G|--2-2-2-2-2-2-2-2--2-2--|--2-2-2-2-2-2-2-2-2--2-2--|--2-2-2-2-2-2-2-2--2-2--|--2-2-2-2-2-2-2-2-2--2-2--|(x2)
D|--0-0-0-0-0-0-0-0--0-0--|--0-0-0-0-0-0-0-0-0--0-0--|--0-0-0-0-0-0-0-0--0-0--|--0-0-0-0-0-0-0-0-0--0-0--|
A|------------------------|--------------------------|------------------------|--------------------------|
E|------------------------|--------------------------|------------------------|--------------------------|


Chorus 3:
e|----0-------0-------0-------0----|----0-------0-------0-------0-2--|
B|------3-------3-------3-------3--|------3-------3-------3----------|
G|---------------------------------|---------------------------------|
D|--0-------0-------0-------0------|--0-------0-------0-------0------|
A|---------------------------------|---------------------------------|
E|---------------------------------|---------------------------------|

e|----0-------0-------0-------0----|----0-------0-2-----0-------0----|
B|------3-------3-------3-------3--|------3---------------3-------3--|
G|---------------------------------|---------------------------------|
D|--0-------0-------0-------0------|--0-------0-------0-------0------|
A|---------------------------------|---------------------------------|
E|---------------------------------|---------------------------------|


Outro:
e|--2-2-2-2-2-0-0-0--0-0--|--2-2-2-2-2-2-0-0-0--0-0--|--2-2-2-2-2-0-0-0--0-0--|--2-2-2-2-2-2-0-0-0--0-0--|
B|--3-3-3-3-3-3-3-3--3-3--|--3-3-3-3-3-3-3-3-3--3-3--|--3-3-3-3-3-3-3-3--3-3--|--3-3-3-3-3-3-3-3-3--3-3--|
G|--2-2-2-2-2-2-2-2--2-2--|--2-2-2-2-2-2-2-2-2--2-2--|--2-2-2-2-2-2-2-2--2-2--|--2-2-2-2-2-2-2-2-2--2-2--|(x4)
D|--0-0-0-0-0-0-0-0--0-0--|--0-0-0-0-0-0-0-0-0--0-0--|--0-0-0-0-0-0-0-0--0-0--|--0-0-0-0-0-0-0-0-0--0-0--|
A|------------------------|--------------------------|------------------------|--------------------------|
E|------------------------|--------------------------|------------------------|--------------------------|

e|--2---------------------|
B|--3---------------------|
G|--2---------------------|
D|--0---------------------|
A|------------------------|
E|------------------------|

Other versions of Me And You Together Song

Me and you together songChords

Almost there ...

Sign in to get your own page with links to favourite songs and more. You are just one click away...

Login with Facebook Login with Google