Log in

One click and you are in

Login with Facebook Login with Google

Why sign up and log in

Guitar Tabs Explorer
The 1975 guitar tabs for Lost boys

Guitar tabs

  • Capo on 2nd
Tuning: Standard (E A D G B E)

--------------------------------------------------------------------------
Guitar 1
--------------------------------------------------------------------------
Intro:
e|-----------------------------------|-----------------------------------|
B|-----------------------------------|-----------------------------------|
G|-----------------------------------|-----------------------------------|
D|--2-2-2-2-2-2-2-2-2-2-2-2-2-2-2-2--|--2-2-2-2-2-2-2-2-2-2-2-2-2-2-2-2--|
A|--2-2-2-2-2-2-2-2-2-2-2-2-2-2-2-2--|--2-2-2-2-2-2-2-2-2-2-2-2-2-2-2-2--|
E|--0-0-0-0-0-0-0-0-0-0-0-0-0-0-0-0--|--0-0-0-0-0-0-0-0-0-0-0-0-0-0-0-0--|
                 PM                                   PM
e|-----------------------------------|-----------------------------------|
B|-----------------------------------|-----------------------------------|
G|--2-2-2-2-2-2-2-2-2-2-2-2-2-2-2-2--|-----------------------------------|
D|--2-2-2-2-2-2-2-2-2-2-2-2-2-2-2-2--|--2-2-2-2-2-2-2-2-2-2-2-2-2-2-2-2--|
A|--0-0-0-0-0-0-0-0-0-0-0-0-0-0-0-0--|--2-2-2-2-2-2-2-2-2-2-2-2-2-2-2-2--|
E|-----------------------------------|--0-0-0-0-0-0-0-0-0-0-0-0-0-0-0-0--|
                 PM                                   PM
e|-----------------------------------|-----------------------------------|
B|-----------------------------------|-----------------------------------|
G|-----------------------------------|-----------------------------------|
D|--2-2-2-2-2-2-2-2-2-2-2-2-2-2-2-2--|--2-2-2-2-2-2-2-2-2-2-2-2-2-2-2-2--|
A|--2-2-2-2-2-2-2-2-2-2-2-2-2-2-2-2--|--2-2-2-2-2-2-2-2-2-2-2-2-2-2-2-2--|
E|--0-0-0-0-0-0-0-0-0-0-0-0-0-0-0-0--|--0-0-0-0-0-0-0-0-0-0-0-0-0-0-0-0--|
                 PM                                   PM
e|--2--------------------------------|--2--------------------------------|
B|--2--------------------------------|--2--------------------------------|
G|--4--------------------------------|--4--------------------------------|
D|--4--------------------------------|--4--------------------------------|
A|--2--------------------------------|--2--------------------------------|
E|-----------------------------------|-----------------------------------|

e|-----------------------------------|-----------------------------------|
B|-----------------------------------|-----------------------------------|
G|-----------------------------------|-----------------------------------|
D|------------------------6----------|-----------------------------------|
A|--9-9-9-7---7-7-7-9-9-9-----7-7-7--|--9-9-9-7---7-7-7-9-9-9-7---7-7-7--|
E|-----------------------------------|-----------------------------------|

e|-----------------------------------|-----------------------------------|
B|-----------------------------------|-----------------------------------|
G|-----------------------------------|-----------------------------------|
D|------------------------6----------|------------------------6----------|
A|--9-9-9-7---7-7-7-9-9-9-----7-7-7--|--9-9-9-7---7-7-7-9-9-9-----7-7-7--|
E|-----------------------------------|-----------------------------------|

--------------------------------------------------------------------------
Guitar 2
--------------------------------------------------------------------------


Intro:
*Capo on the 2nd Fret*
e|-----------------------------------|-----------------------------------|
B|-----------------------------------|-----------------------------------|
G|-----------------------------------|-----------------------------------|
D|--7-7-7-4-4-4-4-4-2-2-2-4-4-4-4-4--|--7-7-7-4-4-4-4-4-2-2-2-4-4-4-4-4--|
A|--0-0-0-0-0-0-0-0-0-0-0-0-0-0-0-0--|--0-0-0-0-0-0-0-0-0-0-0-0-0-0-0-0--|
E|-----------------------------------|-----------------------------------|
                 PM                                   PM
e|-----------------------------------|-----------------------------------|
B|-----------------------------------|-----------------------------------|
G|-----------------------------------|-----------------------------------|
D|--5-5-5-4-4-4-4-4-2-2-2-0-0-0-0-0--|--7-7-7-4-4-4-4-4-2-2-2-4-4-4-4-4--|
A|--0-0-0-0-0-0-0-0-0-0-0-0-0-0-0-0--|--0-0-0-0-0-0-0-0-0-0-0-0-0-0-0-0--|
E|-----------------------------------|-----------------------------------|
                 PM                                   PM
e|-----------------------------------|-----------------------------------|
B|-----------------------------------|-----------------------------------|
G|-----------------------------------|-----------------------------------|
D|--7-7-7-4-4-4-4-4-2-2-2-4-4-4-4-4--|--5-5-5-4-4-4-4-4-2-2-2-0-0-0-0-0--|
A|--0-0-0-0-0-0-0-0-0-0-0-0-0-0-0-0--|--0-0-0-0-0-0-0-0-0-0-0-0-0-0-0-0--|
E|-----------------------------------|-----------------------------------|
                 PM                                   PM
e|--0--------------------------------|--0--------------------------------|
B|--5--------------------------------|--3--------------------------------|
G|--2--------------------------------|--2--------------------------------|
D|--0--------------------------------|--0--------------------------------|
A|-----------------------------------|-----------------------------------|
E|-----------------------------------|-----------------------------------|

e|--3-3-3-2---2-2-2-0-0-0-2---2-2-2--|--3-3-3-2---2-2-2-0-0-0-2---2-2-2--|
B|--3-3-3-3---3-3-3-3-3-3-3---3-3-3--|--3-3-3-3---3-3-3-3-3-3-3---3-3-3--|
G|-----------------------------------|-----------------------------------|
D|-----------------------------------|-----------------------------------|
A|-----------------------------------|-----------------------------------|
E|-----------------------------------|-----------------------------------|

e|--3-3-3-2---2-2-2-0-0-0-2-2-2-2-2--|--3-3-3-2---2-2-2-0-0-0-2---2-2-2--|
B|--3-3-3-3---3-3-3-3-3-3-3-3-3-3-3--|--3-3-3-3---3-3-3-3-3-3-3---3-3-3--|
G|-----------------------------------|-----------------------------------|
D|-----------------------------------|-----------------------------------|
A|-----------------------------------|-----------------------------------|
E|-----------------------------------|-----------------------------------|


************************************

| PM  Palm mute

************************************

↓ Add and view comments below ↓

What do you think about this song and these tabs?

Add your comments, questions, rant or a thumbs up below.

Almost there ...

Sign in to get your own page with links to favourite songs and more. You are just one click away...

Login with Facebook Login with Google