Log in

One click and you are in

Login with Facebook Login with Google

Why sign up and log in

Guitar Tabs Explorer
The 1975 bass tabs for I always wanna die sometimes

I Always Wanna Die Sometimes bass tab by The 1975

The 1975 bass tabs for I always wanna die sometimes

Bass tabs

Tuning: Standard (E A D G)


Intro:
G|----------------------------------------------------------------|
D|----------------------------------------------------------------|
A|-7~------------------------------7---------------------------2--|
E|---------------------------------------------------------2p4p---|
  1 + 2 + 3 + 4 + 1 + 2 + 3 + 4 + 1 + 2 + 3 + 4 + 1 + 2 + 3 + 4 +

G|----------------------------------------------------------------|
D|----------------------------------------------------------------|
A|-7~-------------------------------------------------------------|
E|---------------------------------9~--------------7~-------------|
  1 + 2 + 3 + 4 + 1 + 2 + 3 + 4 + 1 + 2 + 3 + 4 + 1 + 2 + 3 + 4 +

Verse: "I bet you thought your life would change.."
G|----------------------------------------------------------------|
D|----------------------------------------------------------------|
A|----------------------------------------------------------------|
E|-5~-------------------------------------------------------------|
  1 + 2 + 3 + 4 + 1 + 2 + 3 + 4 + 1 + 2 + 3 + 4 + 1 + 2 + 3 + 4 +

G|----------------------------------------------------------------|
D|----------------------------------------------------------------|
A|-7~--------------------------2---7~-----------------------------|
E|-------------------------2p4p----------------------------7~-----|
  1 + 2 + 3 + 4 + 1 + 2 + 3 + 4 + 1 + 2 + 3 + 4 + 1 + 2 + 3 + 4 +

"your memories are sceneries.."
G|----------------------------------------------------------------|
D|----------------------------------------------------------------|
A|----------------------------------------------------------------|
E|-5~-------------------------------------------------------------|
  1 + 2 + 3 + 4 + 1 + 2 + 3 + 4 + 1 + 2 + 3 + 4 + 1 + 2 + 3 + 4 +

G|----------------------------------------------------------------|
D|----------------------------------------------------------------|
A|-7~--------------------------2---7~--------------------------2--|
E|-------------------------2p4p----------------------------2p4p---|
  1 + 2 + 3 + 4 + 1 + 2 + 3 + 4 + 1 + 2 + 3 + 4 + 1 + 2 + 3 + 4 +

"you build it to a high.."
G|----------------------------------------------------------------|
D|----------------------------------------------------------------|
A|----------------------------------------------------------------|
E|-5~------------------------------5~-----------------------------|
  1 + 2 + 3 + 4 + 1 + 2 + 3 + 4 + 1 + 2 + 3 + 4 + 1 + 2 + 3 + 4 +

G|----------------------------------------------------------------|
D|----------------------------------------------------------------|
A|-7~--------------------------2---7~-----------------------------|
E|-------------------------2p4p----------------------------7~-----|
  1 + 2 + 3 + 4 + 1 + 2 + 3 + 4 + 1 + 2 + 3 + 4 + 1 + 2 + 3 + 4 +

"but your death it won't happen to you.."
G|----------------------------------------------------------------|
D|----------------------------------------------------------------|
A|----------------------------------------------------------------|
E|-5~-------------------------------------------------------------|
  1 + 2 + 3 + 4 + 1 + 2 + 3 + 4 + 1 + 2 + 3 + 4 + 1 + 2 + 3 + 4 +

G|----------------------------------------------------------------|
D|----------------------------------------------------------------|
A|----------------/6---6---7---7\--4---4---4---4---4\-------------|
E|-4---4---4---4--------------------------------------------------|
  1 + 2 + 3 + 4 + 1 + 2 + 3 + 4 + 1 + 2 + 3 + 4 + 1 + 2 + 3 + 4 +


Chorus: "and I always wanna die.."
G|----------------------------------------------------------------|
D|----------------------------------------------------------------|
A|----------------------------------------------------------------|
E|-2---2---2---2---2---2---2---2---5---5---5---5---5---5---5---5--|
  1 + 2 + 3 + 4 + 1 + 2 + 3 + 4 + 1 + 2 + 3 + 4 + 1 + 2 + 3 + 4 +

G|----------------------------------------------------------------|
D|----------------------------------------------------------------|
A|---------------------------------4---4---4---4---4---4---2---2--|
E|-0---0---0---0---0---0---0---0----------------------------------|
  1 + 2 + 3 + 4 + 1 + 2 + 3 + 4 + 1 + 2 + 3 + 4 + 1 + 2 + 3 + 4 +

G|----------------------------------------------------------------|
D|----------------------------------------------------------------|
A|----------------------------------------------------------------|
E|-2---2---2---2---2---2---2---2---5~-----------------------------|
  1 + 2 + 3 + 4 + 1 + 2 + 3 + 4 + 1 + 2 + 3 + 4 + 1 + 2 + 3 + 4 +


Pre-Verse:
G|----------------------------------------------------------------|
D|----------------------------------------------------------------|
A|-7-------------------------------7-------------------7----------|
E|-------------------------------------------------7p9p----9---7--|
  1 + 2 + 3 + 4 + 1 + 2 + 3 + 4 + 1 + 2 + 3 + 4 + 1 + 2 + 3 + 4 +

G|----------------------------------------------------------------|
D|----------------------------------------------------------------|
A|-7~--------------------------2---7~--------------------------2--|
E|-------------------------2p4p----------------------------2p4p---|
  1 + 2 + 3 + 4 + 1 + 2 + 3 + 4 + 1 + 2 + 3 + 4 + 1 + 2 + 3 + 4 +


Verse: "you win you lose.."
G|----------------------------------------------------------------|
D|----------------------------------------------------------------|
A|----------------------------------------------------------------|
E|-5~------------------------------5~-----------------------------|
  1 + 2 + 3 + 4 + 1 + 2 + 3 + 4 + 1 + 2 + 3 + 4 + 1 + 2 + 3 + 4 +

G|----------------------------------------------------------------|
D|----------------------------------------------------------------|
A|----------------/6---6---7---7\--4---4---4---4---4\-------------|
E|-4---4---4---4--------------------------------------------------|
  1 + 2 + 3 + 4 + 1 + 2 + 3 + 4 + 1 + 2 + 3 + 4 + 1 + 2 + 3 + 4 +


Chorus:
G|----------------------------------------------------------------|
D|----------------------------------------------------------------|
A|----------------------------------------------------------------|
E|-2---2---2---2---2---2---2---2---5---5---5---5---5---5---5---5--|
  1 + 2 + 3 + 4 + 1 + 2 + 3 + 4 + 1 + 2 + 3 + 4 + 1 + 2 + 3 + 4 +

G|----------------------------------------------------------------|
D|----------------------------------------------------------------|
A|-----------------------------2---4---4---4--/7---7---4---4---4\-|
E|-0---0---0---2---2---4---4--------------------------------------|
  1 + 2 + 3 + 4 + 1 + 2 + 3 + 4 + 1 + 2 + 3 + 4 + 1 + 2 + 3 + 4 +

G|----------------------------------------------------------------|
D|----------------------------------------------------------------|
A|-------------------------------------------------------------2--|
E|-2---2---2---2---2---2---2---2---5---5---5---5---5---5---2p4p---|
  1 + 2 + 3 + 4 + 1 + 2 + 3 + 4 + 1 + 2 + 3 + 4 + 1 + 2 + 3 + 4 +

G|----------------------------------------------------------------|
D|----------------------------------------------------------------|
A|-----------------------------2---4---4---4---4---4---4-------2--|
E|-0---0---0---0---0---0---2p4p----------------------------2p4p---|
  1 + 2 + 3 + 4 + 1 + 2 + 3 + 4 + 1 + 2 + 3 + 4 + 1 + 2 + 3 + 4 +

G|-----------------------------------------------------------------|
D|-------------------------7---------------------------------------|
A|-----------------------------7-----------------------------------|
E|-5---5---5---5---5---5-----------5---5---5---5---5---5---x-x-x-x-|
  1 + 2 + 3 + 4 + 1 + 2 + 3 + 4 + 1 + 2 + 3 + 4 + 1 + 2 + 3 + 4 +


Bridge: "am I me through geography "
G|----------------------------------------------------------------|
D|----------------------------------------------------------------|
A|---------------------------------4---4---4---4---4---4--/12--11\|
E|-4---4---4---4---4---4---4---4----------------------------------|
  1 + 2 + 3 + 4 + 1 + 2 + 3 + 4 + 1 + 2 + 3 + 4 + 1 + 2 + 3 + 4 +

G|----------------------------------------------------------------|
D|-------------------------2---2----------------------------------|
A|-0---0---0---0---0---0-----------2---2---2---2---3---3---3---3--|
E|----------------------------------------------------------------|
  1 + 2 + 3 + 4 + 1 + 2 + 3 + 4 + 1 + 2 + 3 + 4 + 1 + 2 + 3 + 4 +

G|----------------------------------------------------------------|
D|----------------------------------------------------------------|
A|-4---4---4---4---4---4---4---4---2---2---2---2---2---2---2---2--|
E|----------------------------------------------------------------|
  1 + 2 + 3 + 4 + 1 + 2 + 3 + 4 + 1 + 2 + 3 + 4 + 1 + 2 + 3 + 4 +

G|----------------------------------------------------------------|
D|-------------------------2---2-------------------------2-----2--|
A|-0---0---0---0---0---0-----------2---2---2---2---2---2---4-2----|
E|----------------------------------------------------------------|
  1 + 2 + 3 + 4 + 1 + 2 + 3 + 4 + 1 + 2 + 3 + 4 + 1 + 2 + 3 + 4 +


Chorus: "and I always wanna die.."
G|----------------------------------------------------------------|
D|-4~-------------------------------------------------------------|
A|----------------------------------------------------------------|
E|---------------------------------5~-----------------------------|
  1 + 2 + 3 + 4 + 1 + 2 + 3 + 4 + 1 + 2 + 3 + 4 + 1 + 2 + 3 + 4 +

G|----------------------------------------------------------------|
D|----------------------------------------------------------------|
A|-----------------------------rest-------------------------------|
E|----------------------------------------------------------------|
  1 + 2 + 3 + 4 + 1 + 2 + 3 + 4 + 1 + 2 + 3 + 4 + 1 + 2 + 3 + 4 +

G|----------------------------------------------------------------|
D|----------------------------------------------------------------|
A|---------------------------------0---0---0---0/--12--12--12--12-|
E|----------------------------------------------------------------|
  1 + 2 + 3 + 4 + 1 + 2 + 3 + 4 + 1 + 2 + 3 + 4 + 1 + 2 + 3 + 4 +


Outro:
G|----------------------------------------------------------------|
D|----------------------------------------------------------------|
A|---------------------------------4---4---4---4---4---4---4---4--|
E|-0---0---0---0---0---0---0---0----------------------------------|
  1 + 2 + 3 + 4 + 1 + 2 + 3 + 4 + 1 + 2 + 3 + 4 + 1 + 2 + 3 + 4 +

G|----------------------------------------------------------------|
D|----------------------------------------------------------------|
A|-2---2---2---2---2---2---2---2---0---0---0---0---0---0---0---0--|
E|----------------------------------------------------------------|
  1 + 2 + 3 + 4 + 1 + 2 + 3 + 4 + 1 + 2 + 3 + 4 + 1 + 2 + 3 + 4 +

G|----------------------------------------------------------------|
D|----------------------------------------------------------------|
A|---------------------------------4---4---4---4---4---4---4---4--|
E|-0---0---0---0---0---0---0---0----------------------------------|
  1 + 2 + 3 + 4 + 1 + 2 + 3 + 4 + 1 + 2 + 3 + 4 + 1 + 2 + 3 + 4 +

G|-----------------------------------------------------------------|
D|-----------------------------------------------------------------|
A|-2---2---2---2---2---2---2---2---0---0---0---0---0---0---4p2p----|
E|-------------------------------------------------------------5p4p|
  1 + 2 + 3 + 4 + 1 + 2 + 3 + 4 + 1 + 2 + 3 + 4 + 1 + 2 + 3 + 4 +

G|----------------------------------------------------------------|
D|----------------------------------------------------------------|
A|---------------------------------4---4---4---4--/7---7\--4---4--|
E|-0---0---0---0---0---0---0---0----------------------------------|
  1 + 2 + 3 + 4 + 1 + 2 + 3 + 4 + 1 + 2 + 3 + 4 + 1 + 2 + 3 + 4 +

G|----------------------------------------------------------------|
D|----------------------------------------------------------------|
A|-2---2---2---2---2---2-------2---0---0---0---0---0---0---0---0--|
E|-------------------------2p4p-----------------------------------|
  1 + 2 + 3 + 4 + 1 + 2 + 3 + 4 + 1 + 2 + 3 + 4 + 1 + 2 + 3 + 4 +

G|----------------------------------------------------------------|
D|----------------------------------------------------------------|
A|-7---7---7---7---7---7---7---7----------------------------------|
E|---------------------------------4---4---4---4---4---4---4---4--|
  1 + 2 + 3 + 4 + 1 + 2 + 3 + 4 + 1 + 2 + 3 + 4 + 1 + 2 + 3 + 4 +

G|------------------------------------------------------------------|
D|------------------------------------------------------------------|
A|-4---4---4---4---2---2---2---2---0---0---0---0---0---0---4p2p-----|
E|-------------------------------------------------------------5p4p-|
  1 + 2 + 3 + 4 + 1 + 2 + 3 + 4 + 1 + 2 + 3 + 4 + 1 + 2 + 3 + 4 +

G|----------------------------------------------------------------|
D|----------------------------------------------------------------|
A|----------------------------------------------------------------|
E|-0~-------------------------------------------------------------|
  1 + 2 + 3 + 4 + 1 + 2 + 3 + 4 + 1 + 2 + 3 + 4 + 1 + 2 + 3 + 4 +


************************************

| x  Dead note
| p  Pull-off
| /  Slide up
| \  Slide down
| ~  Vibrato

************************************

Almost there ...

Sign in to get your own page with links to favourite songs and more. You are just one click away...

Login with Facebook Login with Google