Log in

One click and you are in

Login with Facebook Login with Google

Why sign up and log in

Guitar Tabs Explorer
19 Wheels tabs for So cool

Guitar tabs

Album: Sugareen
  Tabbed By: Zach Raven - Moby8300a@aol.com - Entirely my own work.

  This song is fairly easy. I'm not positve on all the chords, but it
  sounds right. 19 Wheels has two guitars, this is the rythm part and
  the lead solo.  They use a distortion pedal and the lead uses a wah
  pedal in some parts. Standard tuning - [EADGBe]

    h - hammer on
    p - pull off
    b - bend
    r - release bend
    / - slide
    x - muted string

     Got our first gig...
    |------------------------------------------------------|
    |------------------------------------------------------|
    |---------------------------x-4-4---x---x-4-4-4---x----| x 5
    |---4-4---x---x-6-6-6---x---x-4-4---x---x-4-4-4---x----|
    |---4-4---x---x-6-6-6---x---x-2-2---x---x-2-2-2---x----|
    |---2-2---x---x-4-4-4---x------------------------------|


    |------------------------------------------------------|
    |------------------------------------------------------|
    |------------------------x-4-4-------------------------| x 2
    |---4-4---x---x-6----x---x-4-4---4---------------------|
    |---4-4---x---x-6----x---x-2-2---4---------------------|
    |---2-2---x---x-4----x-----------2---------------------|

     We've got tattoos...
    |------------------------------------------------------|
    |------------------------------------------------------|
    |---------------------------x-4-4---x---x-4-4-4---x----| x 3
    |---4-4---x---x-6-6-6---x---x-4-4---x---x-4-4-4---x----|
    |---4-4---x---x-6-6-6---x---x-2-2---x---x-2-2-2---x----|
    |---2-2---x---x-4-4-4---x------------------------------|

     We think thats funny...
    |------------------------------------------------------|
    |------------------------------------------------------|
    |---------------------------x-4-4----------------------|
    |---4-4---x---x-6-6-6---x---x-4-4---4------------------|
    |---4-4---x---x-6-6-6---x---x-2-2---4------------------|
    |---2-2---x---x-4-4-4---x-----------2------------------|

     You think... Oo Oo Oo We're in it...       Don't you...
    |-----------|------------------------|     ------------|
    |-----------|------------------------|     ------------|
    |-------3/4-|--4-4-------------------| x 3 -------4444-|
    |-4/6---3/4-|--4-4---4-4---4-4---4-4-|     -6666--4444-|
    |-4/6---1/2-|--2-2---4-4---4-4---4-4-|     -6666--2222-|
    |-2/4-------|--------2-2---2-2---2-2-|     -4444-------|

    |--------------------------|---------------------------|
    |--------------------------|---------------------------|
    |-----------------44444444-|-----------------44--------|
    |---4444---6666---44444444-|---4444---6666---44---4----|
    |---4444---6666---22222222-|---4444---6666---22---4----|
    |---2222---4444------------|---2222---4444--------2----|

     You bought my cd and a video...
    |------------------------------------------------------|
    |------------------------------------------------------|
    |---------------------------x-4-4---x---x-4-4-4---x----| x 3
    |---4-4---x---x-6-6-6---x---x-4-4---x---x-4-4-4---x----|
    |---4-4---x---x-6-6-6---x---x-2-2---x---x-2-2-2---x----|
    |---2-2---x---x-4-4-4---x------------------------------|


    |------------------------------------------------------|
    |------------------------------------------------------|
    |---------------------------x-4-4----------------------|
    |---4-4---x---x-6-6-6---x---x-4-4---4------------------|
    |---4-4---x---x-6-6-6---x---x-2-2---4------------------|
    |---2-2---x---x-4-4-4---x-----------2------------------|

     You think... Oo Oo Oo We're in it...       Don't you...
    |-----------|------------------------|     ------------|
    |-----------|------------------------|     ------------|
    |-------3/4-|--4-4-------------------| x 3 -------4444-|
    |-4/6---3/4-|--4-4---4-4---4-4---4-4-|     -6666--4444-|
    |-4/6---1/2-|--2-2---4-4---4-4---4-4-|     -6666--2222-|
    |-2/4-------|--------2-2---2-2---2-2-|     -4444-------|

                                                   You think...
    |----------------------|     --------------|-----------|
    |----------------------|     --------------|-----------|
    |-------------44444444-| x 3 -4-4----------|-------3/4-| x 2
    |-4444--6666--44444444-|     -4-4---4--4-4-|-4/6---3/4-|
    |-4444--6666--22222222-|     -2-2---4--4-4-|-4/6---1/2-|
    |-2222--4444-----------|     -------2--2-2-|-2/4-------|

     (Talk-Box) Put your hands to the air...
    |----------------------------------------------------------|
    |----------------------------------------------------------|
    |----------------------------------------------------------|
    |----------------------------------------------------------|
    |----------------------------------------------------------|
    |----------------------------------------------------------|
     Hey baby...                               We'll meet you...
    |---------|----------------------|     --------------------|
    |---------|----------------------|     --------------------|
    |------44-|-------------44444444-| x 5 --------------44----|
    |--66--44-|-4444--6666--44444444-|     --4444--6666--44--4-|
    |--66--22-|-4444--6666--22222222-|     --4444--6666--22--4-|
    |--44-----|-2222--4444-----------|     --2222--4444------2-|
    END.

    And here's the solo, just in case you want it... the muted
      strings in the beginning use a wah pedal.

    |-xxxxxxxx-------------------------------------------------|
    |-xxxxxxxx---12-11-12--12-11-12--12-11-12--12b-r12--11-12--|
    |-xxxxxxxx-------------------------------------------------|
    |-xxxxxxxx-------------------------------------------------|
    |-xxxxxxxx-------------------------------------------------|
    |-xxxxxxxx-------------------------------------------------|

    |--------------------------------------9vvv--11vvv--14vvvv-|
    |-12b-r12--11-11b12r11--9-9b11r9--7------------------------|
    |------------------------------------5---------------------|
    |----------------------------------------------------------|
    |----------------------------------------------------------|
    |----------------------------------------------------------|

    |-18-19-18-19--19b21r19--18-19-19-18-16--------------------|
    |---------------------------------------19-----------------|
    |----------------------------------------------------------|
    |----------------------------------------------------------|
    |----------------------------------------------------------|
    |----------------------------------------------------------|

Almost there ...

Sign in to get your own page with links to favourite songs and more. You are just one click away...

Login with Facebook Login with Google