Log in

One click and you are in

Login with Facebook Login with Google

Why sign up and log in

Guitar Tabs Explorer
16 Volt tabs for The enemy

Guitar tabs

SONG: The Enemy
BAND: 16 Volt
ALBUM: Super Cool Nothing
TRANSCRIBED BY: Josh Brown (joshbrown311@hotmail.com)
DATE: Unknown

 TUNING: drop d and down one full step (C-G-C-F-A-D)
     RIFF A:

    |---------------------------------|
    |---------------------------------|
    |---------------------------------|
    |-3-0-0-3-0-0-4-0-0-4-0-0-6-6-6-6-|
    |-3-0-0-3-0-0-4-0-0-4-0-0-6-6-6-6-|
    |-3-0-0-3-0-0-4-0-0-4-0-0-6-6-6-6-|

     RIFF B:

    |--------------|
    |--------------|
    |------5-7---7-|
    |-4-3--5-7---7-|
    |-4-3--3-5---5-|
    |-4-3----------|

     RIFF C:

    |-----|
    |-----|
    |-----|
    |-----|
    |-----|
    |-4-3-|

Almost there ...

Sign in to get your own page with links to favourite songs and more. You are just one click away...

Login with Facebook Login with Google