Log in

One click and you are in

Login with Facebook Login with Google

Why sign up and log in

Guitar Tabs Explorer
16 Volt tabs for Machine kit

Guitar tabs

Machine Kit by 16 volt
Off the album SuperCoolNothing
tabbed by noble

Drop A chord diagramC majorC tuning
Intro

-5-5-5-6-6-6-7-7-7-8-8-8-9-9-9-10-
-5-5-5-6-6-6-7-7-7-8-8-8-9-9-9-10-
-5-5-5-6-6-6-7-7-7-8-8-8-9-9-9-10-


This is the verse, plays this riff for a while.

Machine Kit,      in the graveyard

-1-0-0-1-0-0-----1-0-0--1-0-0------7-7--6-6
-1-0-0-1-0-0-----1-0-0--1-0-0------5-5--6-6
-1-0-0-1-0-0-----1-0-0--1-0-0-----------6-6




-5-5-5-6-6-6-7-7-7-8-8-8-9-9-9-10-
-5-5-5-6-6-6-7-7-7-8-8-8-9-9-9-10-  4 times then
-5-5-5-6-6-6-7-7-7-8-8-8-9-9-9-10-

-10-10-10-9-9-9-8-8-8-7-7-7-6-6-6-5-
-10-10-10-9-9-9-8-8-8-7-7-7-6-6-6-5- 4  times then back to
-10-10-10-9-9-9-8-8-8-7-7-7-6-6-6-5-


-5-5-5-6-6-6-7-7-7-8-8-8-9-9-9-10-
-5-5-5-6-6-6-7-7-7-8-8-8-9-9-9-10- 4 times then
-5-5-5-6-6-6-7-7-7-8-8-8-9-9-9-10-


-1-0-0-1-0-0-----1-0-0--1-0-0------
-1-0-0-1-0-0-----1-0-0--1-0-0------
-1-0-0-1-0-0-----1-0-0--1-0-0------

Almost there ...

Sign in to get your own page with links to favourite songs and more. You are just one click away...

Login with Facebook Login with Google