Log in

One click and you are in

Login with Facebook Login with Google

Why sign up and log in

Guitar Tabs Explorer
16 Volt tabs for Keep sleeping

Guitar tabs

SONG: Keep Sleeping
BAND: 16 Volt
ALBUM: Super Cool Nothing
TRANSCRIBED BY: Josh Brown (joshbrown311@hotmail.com)
DATE: Unknown
TUNING: drop d and down one full step (C-G-C-F-A-D)


     RIFF A:

    |-----------------------|
    |-----------------------|
    |-----------------------|
    |-0-0-0---0-0-0---0-0-6-|
    |-0-0-0---0-0-0---0-0-6-|
    |-0-0-0---0-0-0---0-0-6-|

     RIFF B:

    |--------------------------------------------------------------|
    |--------------------------------------------------------------|
    |--------------------------------------------------------------|
    |-0-0-0-0--0-0-0-0--0-0-0---10-10-10-10--10-10-10-10--10-10-10-|
    |-0-0-0-0--0-0-0-0--0-0-0---10-10-10-10--10-10-10-10--10-10-10-|
    |-0-0-0-0--0-0-0-0--0-0-0---10-10-10-10--10-10-10-10--10-10-10-|

    |-----------------------------------------------------|
    |-----------------------------------------------------|
    |-----------------------------------------------------|
    |-9-9-9-9--9-9-9-9--9-9-9---8-8-8-8--7-7-7-7--5-5-3-3-|
    |-9-9-9-9--9-9-9-9--9-9-9---8-8-8-8--7-7-7-7--5-5-3-3-|
    |-9-9-9-9--9-9-9-9--9-9-9---8-8-8-8--7-7-7-7--5-5-3-3-|

     RIFF C:

    |---------------|
    |---------------|
    |---------------|
    |-0--0-----0--0-|
    |-0--0-----0--0-|
    |-0--0-----0--0-|

     RIFF D:

    |---------------------------------------------------------------|
    |---------------------------------------------------------------|
    |---------------------------------------------------------------|
    |-0-0--0-0--0-0-10-10--10-10--10-10-9-9--9-9--9-9-8-8--8-8--8-8-|
    |-0-0--0-0--0-0-10-10--10-10--10-10-9-9--9-9--9-9-8-8--8-8--8-8-|
    |-0-0--0-0--0-0-10-10--10-10--10-10-9-9--9-9--9-9-8-8--8-8--8-8-|

    |----------|
    |----------|
    |----------|
    |-7-7--5-3-|
    |-7-7--5-3-|
    |-7-7--5-3-|

Almost there ...

Sign in to get your own page with links to favourite songs and more. You are just one click away...

Login with Facebook Login with Google