Log in

One click and you are in

Login with Facebook Login with Google

Why sign up and log in

Guitar Tabs Explorer
16 Volt tabs for Everyday everything

Guitar tabs

SONG: Everyday Everything
BAND: 16 Volt
ALBUM: Super Cool Nothing
TRANSCRIBED BY: Josh Brown (joshbrown311@hotmail.com)
DATE: Unknown

--------------------------------------------------------------------------------
--------------
TUNING: drop d and down one full step (C-G-C-F-A-D)


     RIFF A:

    |---------------------------------|
    |---------------------------------|
    |-------6-6-6---------------------|
    |-3-3-3-6-6-6-4-4-4-5-5-5-6-6-7-7-|
    |-3-3-3-4-4-4-4-4-4-5-5-5-6-6-7-7-|
    |-3-3-3-------4-4-4-5-5-5-6-6-7-7-|

     RIFF B:

    |--------------------------------------|
    |--------------------------------------|
    |---------------------------3--3-------|
    |-3--3--7--7--7\6--6\1-1-1--3--3--1--1-|
    |-3--3--7--7--7\6--6\1-1-1--1--1--1--1-|
    |-3--3--7--7--7\6--6\1-1-1--------1--1-|

     RIFF C:

    |---|
    |---|
    |---|
    |-3-|
    |-3-|
    |-3-|

Almost there ...

Sign in to get your own page with links to favourite songs and more. You are just one click away...

Login with Facebook Login with Google