GuitarTabsExplorer icon
GuitarTabsExplorer icon

Log in

Songbook

  • Log in to add and see bookmarks

Last visited songs

    No songs visited yet...

At The End by 16volt

Tabs

At The End--By 16 Volt, supercoolnothing

These are the riffs, You wont have trouble if you know the song. Drop Chord diagramC majorC
tuning. have fun

F----------------------------------------------------------------------|
C-8-8-8-8-8-8-8-8-8-8-8-8-8-8-8-8-8-8-8/12-3-3-3-3-3-3-3-3-3-1-1-1-1-1-|
G-8-8-8-8-8-8-8-8-8-8-8-8-8-8-8-8-8-8-8/12-3-3-3-3-3-3-3-3-3-1-1-1-1-1-|
C-8-8-8-8-8-8-8-8-8-8-8-8-8-8-8-8-8-8-8/12-3-3-3-3-3-3-3-3-3-1-1-1-1-1-|

That little "" below means that you need to just kinda hover your
finger over the "1" fret, kinda like an artifical harmonic.

One day my head filled up with thought.....

C----------------------------------5-|------------------------------1-1-|
G-------------------------------5^6--|------------------------------1-1-|
C--0--0-x-x-x--0--0------|-0--0-x-x-x--0--0-1-1-|

Then

And I find.....

c-3-3-3-3-3-3-3-3-3-3-0-0-0-0-0-8-8-8-8-8-8
g-3-3-3-3-3-3-3-3-3-3-0-0-0-0-0-8-8-8-8-8-8
c-3-3-3-3-3-3-3-3-3-3-0-0-0-0-0-8-8-8-8-8-8

normal verse, chorus, verse song

[ Privacy | About us ]

Welcome to the guitar community

Why join and log in?
- Get songbook with favourite songs
- Get custom made front page
- Submit chords and tabs
- Submit guitar-cover videos
- Get a lot of thumbs up for your work

Songbook

Last visited songs

Site
Home
Search
Community
Submit chords

Video

No video for this page. Check out how you can submit guitar-cover videos here

Search tabs and chords

Browse by artist

A B C D E F G H I J K L M N O P Q R S T U V W X Y Z #


Menu

Search

Video

Bookmark

Login