Log in

One click and you are in

Login with Facebook Login with Google

Why sign up and log in

Guitar Tabs Explorer
16 Volt tabs for At the end

Guitar tabs

At The End--By 16 Volt, supercoolnothing

These are the riffs, You wont have trouble if you know the song. Drop A chord diagramC majorC

tuning. have fun

F----------------------------------------------------------------------|
C-8-8-8-8-8-8-8-8-8-8-8-8-8-8-8-8-8-8-8/12-3-3-3-3-3-3-3-3-3-1-1-1-1-1-|
G-8-8-8-8-8-8-8-8-8-8-8-8-8-8-8-8-8-8-8/12-3-3-3-3-3-3-3-3-3-1-1-1-1-1-|
C-8-8-8-8-8-8-8-8-8-8-8-8-8-8-8-8-8-8-8/12-3-3-3-3-3-3-3-3-3-1-1-1-1-1-|

That little "<1>" below means that you need to just kinda hover your
finger over the "1" fret, kinda like an artifical harmonic.

One day my head filled up with thought.....

C----------------------------------5-|------------------------------1-1-|
G-------------------------------5^6--|------------------------------1-1-|
C-<1>-0-<1>-0-x-x-x-<1>-0-<1>-0------|<1>-0-<1>-0-x-x-x-<1>-0-<1>-0-1-1-|

Then

And I find.....

c-3-3-3-3-3-3-3-3-3-3-0-0-0-0-0-8-8-8-8-8-8
g-3-3-3-3-3-3-3-3-3-3-0-0-0-0-0-8-8-8-8-8-8
c-3-3-3-3-3-3-3-3-3-3-0-0-0-0-0-8-8-8-8-8-8

normal verse, chorus, verse song

Almost there ...

Sign in to get your own page with links to favourite songs and more. You are just one click away...

Login with Facebook Login with Google