Log in

One click and you are in

Login with Facebook Login with Google

Why sign up and log in

Guitar Tabs Explorer
16 Down tabs for Can I ever get this close to you again

Can I Ever Get This Close To You Again tab by 16 Down

16 Down tabs for Can I ever get this close to you again

Guitar tabs

Abum: Life in a fishbowl

Transcription by Ynse Algra
Comments: y.j.algra@home.nl

Intro + Verse:

Can I ever.....
 A chord diagramDmDm		   A chord diagramFF		     A chord diagramBb majorBb		       Gm7/9
|-----0-------0---|-----5-------5---|-----6-------6---|-----5-------5---||
|---6---6---6---6-|---6---6---6--6--|---6---6---6---6-|---6---6---6---6-||
|-7-------7-------|-5-------5-------|-3-------3-------|-0-------0-------||
|-----------------|-----------------|-----------------|-----------------||
|-----------------|-----------------|-----------------|-----------------||
|-----------------|-----------------|-----------------|-----------------||


Chorus:

I don't know what.....
   A chord diagramDmDm   A chord diagramFF   A chord diagramBb majorBb Gm7/9
A chord diagramEb MajorEb|-5---5---6---x---||
A chord diagramBb majorBb|-6---6---6---10--||
A chord diagramGbGb|-7---5---7---10--||
A chord diagramDbDb|-7---7---8---8---||
A chord diagramAbAb|-5---8---8---10--||
A chord diagramEb MajorEb|-x---5---6---x---||

I don't know what ....
 A chord diagramDmDm		   A chord diagramFF		     A chord diagramBb majorBb		       Gm7/9
|-----0-------0---|-----5-------5---|-----6-------6---|-----5-------5---||
|---6---6---6---6-|---6---6---6--6--|---6---6---6---6-|---6---6---6---6-||
|-7-------7-------|-5-------5-------|-3-------3-------|-0-------0-------||
|-----------------|-----------------|-----------------|-----------------||
|-----------------|-----------------|-----------------|-----------------||
|-----------------|-----------------|-----------------|-----------------||

Bridge:
A chord diagramEb MajorEb|-----------------------------------------||
A chord diagramBb majorBb|-----------------------------------------||
A chord diagramGbGb|-7-7-7-10-10-10-4-4-4-12-12-12-----------||
A chord diagramDbDb|-----------------------------------------||
A chord diagramAbAb|-5-5-5-8--8--8--2-2-2-10-10-10-8----7----||
A chord diagramEb MajorEb|---------------------------------10---9--||
						2x
A chord diagramEb MajorEb|-----------------------------------------||
A chord diagramBb majorBb|----------------8-8-8-9-9-9--------------||
A chord diagramGbGb|-7-7-7-10-10-10-------------5---5-6------||
A chord diagramDbDb|----------------5-5-5-6-6-6---7----------||
A chord diagramAbAb|-5-5-5-8--8--8---------------------------||
A chord diagramEb MajorEb|-----------------------------------------||

Life in a fish- bowl.....
A chord diagramEb MajorEb|-----8-----8-----8-----8-----7-----||
A chord diagramBb majorBb|-----6-----6-----6-----6-----6-----||
A chord diagramGbGb|---7-----7-----7-----7-----7-------||
A chord diagramDbDb|-0-----0-----0-----0-----0---------||
A chord diagramAbAb|-----------------------------------||
A chord diagramEb MajorEb|-----------------------------------||


Chorus


Outro = intro

Almost there ...

Sign in to get your own page with links to favourite songs and more. You are just one click away...

Login with Facebook Login with Google