Log in

One click and you are in

Login with Facebook Login with Google

Why sign up and log in

Guitar Tabs Explorer
The 13th Floor Elevators bass tabs for Youre gonna miss me

You're Gonna Miss Me bass tab by The 13th Floor Elevators

The 13th Floor Elevators bass tabs for Youre gonna miss me

Bass tabs

G |-----------------|-----------------|
D |-----------------|-----------------|   Play measure 18 times
A |-----------------|-7---5-----------|
E |-----------------|---------5---3---|
  1 & 2 & 3 & 4 &  1 & 2 & 3 & 4 &

    at 1:02
G |-----------------|
D |-----------5-----    Play measure 14 times
A |-7---777---------|
E |-----------------|
  1 & 2 & 3 & 4 &
   at 1:24
G |-----------------|-----------------|-----------------|-----------------|
D |-----------------|-----------------|-----------------|-----------------|
A |-7-7-7-7-7-7-7-7-|-3---------------|-1---------------|-----------------|
E |-----------------|-----------------|-----------------|-4---------------|
  1 & 2 & 3 & 4 &  1 & 2 & 3 & 4 &  1 & 2 & 3 & 4 &  1 & 2 & 3 & 4 &

G |-----------------|-----------------|-----------------|-----------------|
D |-----------------|-----------------|-----------------|-----------------|
A |-1---------------|-3---------------|-1---------------|-----------------|
E |-----------------|-----------------|-----------------|-1----------------|
  1 & 2 & 3 & 4 &  1 & 2 & 3 & 4 &  1 & 2 & 3 & 4 &  1 & 2 & 3 & 4 &

G |-----------------|-----------------|-----------------|-----------------|
D |-----------------|-----------------|-----------------|-----------------|
A |-5---------------|-----------------|-5---------------|-----------------|
E |-----------------|-1---------------|-----------------|-1---------------|
  1 & 2 & 3 & 4 &  1 & 2 & 3 & 4 &  1 & 2 & 3 & 4 &  1 & 2 & 3 & 4 &

G |-----------------|-----------------|-----------------|-----------------|
D |-----------------|-----------------|-----------5-----|-----------5-----|
A |-5---------------|-5555------------|-7---777---------|-7---777---------|
E |-----------------|-----------------|-----------------|-----------------|
  1 & 2 & 3 & 4 &  1 & 2 & 3 & 4 &  1 & 2 & 3 & 4 &  1 & 2 & 3 & 4 &

G |-----------------|
D |-----------------|  play to end
A |-7---5-----------|
E |---------5---3---|

Almost there ...

Sign in to get your own page with links to favourite songs and more. You are just one click away...

Login with Facebook Login with Google