Log in

One click and you are in

Login with Facebook Login with Google

Why sign up and log in

Guitar Tabs Explorer
10cc tabs for Wall street shuffle

Guitar tabs

Album: sheet music (1974)

E-|---------------------|----------------|
B-|---------------------|----------------|
G-|---------------------|-5----7---------|
D-|-------3-------------|-5----7---------|
A-|-3--5-----5—-3—-5--|-3----5---------|
E-|---------------------|----------------| repeat this a
                                                                            few times
The chorus is just

E-|-------------|
B-|-------------|
G-|-5-5---7-----|
D-|-5-5---7-----|
A-|-3-3---5-----|
E-|-------------| repeated a bunch of times.


Then there is no guitar for the whole song exept for the interlude thing, which is just:


E-|----|----|----|----|----|----|----|----|-----|-------|
B-|----|----|----|----|----|----|----|----|-----|-------|
G-|-7--|----|-5--|----|-7--|----|-5--|----|-----|-------|
D-|-7--|----|-5--|----|-7--|----|-5--|----|-7---|-------|
A-|-5--|----|-3--|----|-5--|----|-3--|----|-7---|-------|
E-|----|----|----|----|----|----|----|----|-5---|-5-3-2-|

e-|---------|
b-|---------|
g-|---------|
d-|---h-----|  (h = hammer on)
a-|--3 -5--|
e-|---------|

and the outro is the same, (just repeat the first 2 chords)

And if you can’t follow that then you’re a bit of a retard.

Other versions of Wall Street Shuffle

Wall street shuffleChords

Almost there ...

Sign in to get your own page with links to favourite songs and more. You are just one click away...

Login with Facebook Login with Google