Log in

One click and you are in

Login with Facebook Login with Google

Why sign up and log in

Guitar Tabs Explorer
10cc bass tabs for The things we do for love

Bass tabs

Tuning: Standard (E A D G)


Intro:

G|-----------------|-----------------|-----------------|---------------------|
D|-7-------7-7-9-7-|-7---------------|-7---------7-9-7-|-7-------------------|
A|-----------------|-----------------|-----------------|---------------------|
E|-----------------|-----------------|-----------------|---------------------|

G|-----------------|-----------------|-----------------|---------------------|
D|-7---------7-9-7-|-7-----------\---|-----------------|---------------------|
A|-----------------|---------------\-|-0---------------|---------------------|
E|-----------------|-----------------|-----------------|---------------------|

Verse 1:

G|----------------|---------------------|----------------|------------8------|
D|-8------8-8---6-|------13\11--8-------|----------------|-------5--8----8---|
A|------8-----8---|-9-------------11--8-|----------------|-6-----------------|
E|----------------|---------------------|-9----9--8----8-|-------------------|

G|-------------------|------------|--------------|---------------------------|
D|-------------------|------------|--------------|---------------------------|
A|-9-------9-9---9---|-8--8--6--6-|-4--4-------6-|-4-------------------------|
E|------9-------9----|------------|-------4--4---|---------------------------|

G|-----------------|---------------------|----------------|------------8-----|
D|------------8--6-|------13\11--8-------|----------------|-------5--8----8--|
A|----------8------|-9-------------11--8-|----------------|-6----------------|
E|-4/6---9---------|---------------------|-9----9--8----8-|------------------|


G|-------------------|------------|--------------|---------------------------|
D|-------------------|------------|--------------|---------------------------|
A|-9-------9-9---9---|-8--8--6--6-|-4--4-------6-|-4-------------------------|
E|------9-------9----|------------|-------4--4---|---------------------------|


Chorus:

G|---------------|---------------|----------------|------------------|
D|---------------|---------------|----------------|------------------|
A|-4-------------|-4-------------|-6----6--4----4-|-3-----------3----|
E|----6--4--6--4-|----6--4--6--4-|----------------|-------4---6----4-|

G|-------------|---------------|-------------|-----------------------|
D|-------------|---------------|-------------|-----------------------|
A|-------------|---------------|-------------|-----------------------|
E|-6----6-4--4-|-2----2-3----3-|--4--4--5--5-|-6--6--2---------------|


Bridge 1:

G|-----------------|-----------------|-----------------|---------------------|
D|-7---------7-9-7-|-----------------|-7---------7-9-7-|-7-------------------|
A|-----------------|-----------------|-----------------|---------------------|
E|-----------------|-----------------|-----------------|---------------------|

G|-----------------|-----------------|-----------------|---------------------|
D|-7---------7-9-7-|-7-----------\---|-----------------|---------------------|
A|-----------------|---------------\-|-0---------------|---------------------|
E|-----------------|-----------------|-----------------|---------------------|


Guitar Solo:

G|----------------|---------------------|----------------|-------8-----------|
D|-8------8-8-8-6-|---------------------|----------------|----------4/5----8-|
A|------8---------|-9-------9-----9--11-|----------------|-6-----------------|
E|----------------|------9------9-------|-9----9--8----8-|-------------------|

G|-------------------|------------|------------|-----------------------------|
D|-------------------|------------|------------|-----------------------------|
A|-9-------9-9---9---|-8--8--6--6-|-4--4-------|-4---------------------------|
E|------9-------9----|------------|-------4--4-|-----------------------------|



Chorus:

G|---------------|---------------|----------------|------------------|
D|---------------|---------------|----------------|------------------|
A|-4-------------|-4-------------|-6----6--4----4-|-3-----------3----|
E|----6--4--6--4-|----6--4--6--4-|----------------|-------4---6----4-|

G|-------------|---------------|-------------|-----------------------|
D|-------------|---------------|-------------|-----------------------|
A|-------------|---------------|-------------|-----------------------|
E|-6----6-4--4-|-2----2-3----3-|--4--4--5--5-|-6--6--2---------------|


Bridge 2:

G|-----------------|-----------------|-----------------|---------------------|
D|-7---------7-9-7-|-----------------|-7---------7-9-7-|-7-------------------|
A|-----------------|-----------------|-----------------|---------------------|
E|-----------------|-----------------|-----------------|---------------------|

G|-----------------|-----------------|-----------------|---------------------|
D|-7---------7-9-7-|-7-----------\---|-----------------|---------------------|
A|-----------------|---------------\-|-0---------------|---------------------|
E|-----------------|-----------------|-----------------|---------------------|


Verse 2:

G|----------------|---------------------|----------------|--------8----------|
D|-8------8-8---6-|------13\11--8-------|----------------|-----------4/5---8-|
A|------8-----8---|-9-------------11--8-|----------------|-6-----------------|
E|----------------|---------------------|-9----9--8----8-|-------------------|

G|-------------------|------------|--------------|---------------------------|
D|-------------------|------------|--------------|--------6--6---------------|
A|-9-------9-9---9---|-8--8--6--6-|-4--4---------|-4--4----------------------|
E|------9-------9----|------------|-------4--4---|---------------------------|


Outro:

G|------------|------------|
D|------------|-------6--6-|
A|-4--4-------|-4--4-------|
E|-------4--4-|------------| repeat for fade out


************************************

| \ Slide down
| / Slide up

************************************
ⓘ Bass guitar tab for 'The Things We Do For Love' by 10cc, a rock band formed in 1972 from Manchester, UK. They are no longer active. 10cc is known for their cheerful rock/pop music.

Almost there ...

Sign in to get your own page with links to favourite songs and more. You are just one click away...

Login with Facebook Login with Google