Log in

One click and you are in

Login with Facebook Login with Google

Why sign up and log in

Guitar Tabs Explorer
10cc bass tabs for Im not in love

Bass tabs

10CC - I'm not in love bass intermezzo

Standard Tuning

Beautiful peace of music, made by 10cc
especially this small bass intermezzo is a musical orgasm for me

Listen carefully at about 1.55

||-------------------------------||
||-------------------------------||
||-------------------------------||
||-9--7--9--9--7--7--9--9--9-----||


||-11/13-11---------------------------||
||-----------11/13-11-----------------||
||--------------------11/14-11----11--||
||-----------------------------14-----||


||-----------------------------------------------||
||-------14-------14-------14-----14----13-------||
||----11-------11-------11-----11----11----14-14-||
||-14-------14-------14--------------------------||


||---------------------------------------------||
||---------------------------14-14-------14-14-||
||----11-14-11----11------11----------11-------||
||-14----------14------14----------14----------||


||----------------------------11/13-11----11-11-||
||-------14----13----------------------13-------||
||----11----14----14-14---14--------------------||
||-14-------------------------------------------||


||-----------------------------------------------------||
||-------14--------14-14---------14----13--------------||
||-11-14----14-11--------14-11------14----14-14---14---||
||-----------------------------------------------------||


||-------------------------||
||------------------11-----|| (i end like this, but in the song he just plays
||-------11---14-----------|| the last 11)
||--14---------------------||

If there is something you want to know about this song, just mail me
@ nick.maertens@gmail.com

Greetzz
Nick

ⓘ Bass guitar tab for 'Im Not In Love' by 10cc, a rock band formed in 1972 from Manchester, UK. They are no longer active. 10cc is known for their cheerful rock/pop music.

Almost there ...

Sign in to get your own page with links to favourite songs and more. You are just one click away...

Login with Facebook Login with Google