Log in

One click and you are in

Login with Facebook Login with Google

Why sign up and log in

Guitar Tabs Explorer
10cc bass tabs for Dreadlock holiday

Bass tabs with lyrics

Tuning: EADG



Intro (after skipping 4 bars drums)
G |-----------------|-----------------|-----------------|-----------------|
D |-----------------|-----------------|-5---------------|-----------------|
A |-------------5---|-3---------------|-------------5---|-3---------------|
E |-3---------------|-----------------|-----------------|---------------1-|
   1 & 2 & 3 & 4 &  1 & 2 & 3 & 4 &  1 & 2 & 3 & 4 &  1 & 2 & 3 & 4 &

G |-----------------|-----------------|-----------------|-----------------|
D |-----------------|-----------------|-----------------|-----------------|
A |---------------1-|-3-3---3-3-------|---------------1-|-3-3---3-3-------|
E |-3---------------|---------------1-|-3---------------|---------------1-|
   1 & 2 & 3 & 4 &  1 & 2 & 3 & 4 &  1 & 2 & 3 & 4 &  1 & 2 & 3 & 4 &
Verse-1                3x
G ||-----------------|-----------------||-----------------|-----------------|
D ||-----------------|-----------------||-----------------|--------------5--|
A ||---------------1-|-3---------------||---------------1-|-3-------------5-|
E ||-3---------------|---------------1-||-3---------------|-----------------|
   1 & 2 & 3 & 4 &  1 & 2 & 3 & 4 &  1 & 2 & 3 & 4 &  1 & 2 & 3 & 4 &

G |-----------------|-----------------|-----------------|-----------------|
D |-5-------5-------|-----------------|-5-------5-------|-----------------|
A |-------5-----5---|-3--3------3---5-|-------5-----5---|-3--3-----3----5-|
E |-----------------|--------3--------|-----------------|-------3---------|
   1 & 2 & 3 & 4 &  1 & 2 & 3 & 4 &  1 & 2 & 3 & 4 &  1 & 2 & 3 & 4 &


Pre chorus
G |-----------------|-----------------|-----------------|----------5------|
D |-5---------------|-----------------|-5---------------|-------5---------|
A |-------------5---|-3-----------5---|-------------5---|-3--6------------|
E |-----------------|-----------------|-----------------|-----------------|
   1 & 2 & 3 & 4 &  1 & 2 & 3 & 4 &  1 & 2 & 3 & 4 &  1 & 2 & 3 & 4 &

Chorus                                   2x
G ||-----------------|-----------------|-----------------|-----------------||
D ||-5---5---5---3---|-----------------|-----------------|-----------------||
A ||-------5---------|-6---6---6-6-5---|-3---3---3---5---|-6---6---6-6-8---||
E ||-----------------|-------6---------|-------3---------|-------6---------||
   1 & 2 & 3 & 4 &  1 & 2 & 3 & 4 &  1 & 2 & 3 & 4 &  1 & 2 & 3 & 4 &

G |-3--3--3---------|-----------------|-3--3--3---------|-----------------|
D |-----------------|-----------------|-----------------|-----------------|
A |-----------------|-1--1--1---------|-----------------|-1--1--1--0---3--|
E |-----------------|-----------------|-----------------|---------------1-|
   1 & 2 & 3 & 4 &  1 & 2 & 3 & 4 &  1 & 2 & 3 & 4 &  1 & 2 & 3 & 4 &

Fill                  2x
G ||-----------------|-----------------||
D ||-----------------|-----------------||
A ||---------------1-|-3---------------||
E ||-3---------------|---------------1-||
   1 & 2 & 3 & 4 &  1 & 2 & 3 & 4 &


Verse-2                3x
G ||-----------------|-----------------||-----------------|-----------------|
D ||-----------------|-----------------||-----------------|--------------5--|
A ||---------------1-|-3---------------||---------------1-|-3-------------5-|
E ||-3---------------|---------------1-||-3---------------|-----------------|
   1 & 2 & 3 & 4 &  1 & 2 & 3 & 4 &  1 & 2 & 3 & 4 &  1 & 2 & 3 & 4 &

G |-----------------|-----------------|-----------------|-----------------|
D |-55------5-------|-----5-7-8-7-5---|-5--------5------|-----5-7-8-7-5---|
A |-------5-----8---|-6-8-----------8-|-------5-------8-|-6-8-----------8-|
E |-----------------|-----------------|-----------------|-----------------|
   1 & 2 & 3 & 4 &  1 & 2 & 3 & 4 &  1 & 2 & 3 & 4 &  1 & 2 & 3 & 4 &


Pre chorus
G |-----------------|-----------------|-----------------|----------5------|
D |-5---------------|-----------------|-----------------|-------5---------|
A |-------------5---|-3-----------5---|--------------5--|-3--6------------|
E |-----------------|-----------------|-3---------------|-----------------|
   1 & 2 & 3 & 4 &  1 & 2 & 3 & 4 &  1 & 2 & 3 & 4 &  1 & 2 & 3 & 4 &


Chorus                                   2x
G ||-----------------|-----------------|-----------------|-----------------||
D ||-5---5---5---3---|-----------------|-----------------|-----------------||
A ||-------5---------|-6---6---6-6-5---|-3---3---3---5---|-6---6---6-6-8---||
E ||-----------------|-------6---------|-------3---------|-------6---------||
   1 & 2 & 3 & 4 &  1 & 2 & 3 & 4 &  1 & 2 & 3 & 4 &  1 & 2 & 3 & 4 &

G |-3--3--3---------|-----------------|-3--3--3---------|-----------------|
D |-----------------|-----------------|-----------------|-----------------|
A |-----------------|-1--1--1---------|-----------------|-1--1--1--0------|
E |-----------------|-----------------|-----------------|-------------1-2-|
   1 & 2 & 3 & 4 &  1 & 2 & 3 & 4 &  1 & 2 & 3 & 4 &  1 & 2 & 3 & 4 &

Fill
G |-----------------|-----------------|-----------------|-----------------|
D |-----------------|-----------------|-----------------|-----------------|
A |---------------1-|-3---------------|---------------1-|-3---------------|
E |-3---------------|---------------1-|-3---------------|-----------------|
   1 & 2 & 3 & 4 &  1 & 2 & 3 & 4 &  1 & 2 & 3 & 4 &  1 & 2 & 3 & 4 &


Verse-3 (change of key!)        3x
G ||-----------------|-----------------||-----------------|-----------------|
D ||-----------------|-----------------||-----------------|---------------4-|
A ||---------------2-|-4---------------||---------------2-|-4---------------|
E ||-4---------------|---------------2-||-4---------------|-----------------|
   1 & 2 & 3 & 4 &  1 & 2 & 3 & 4 &  1 & 2 & 3 & 4 &  1 & 2 & 3 & 4 &

G |-----------------|-----------------|-----------------|-----------------|
D |-6---6---6-------|-----------------|-6---6---6-------|-----------------|
A |-------6-----9---|-7---7---7-7--9--|-------6-----9---|-7---7---7----9--|
E |-----------------|-------7---------|-----------------|-------7---------|
   1 & 2 & 3 & 4 &  1 & 2 & 3 & 4 &  1 & 2 & 3 & 4 &  1 & 2 & 3 & 4 &


Pre chorus
G |-----------------|-----------------|-----------------|-------6---------|
D |-6---------------|-----------------|-----------------|------6----------|
A |-------------6---|-4-----------6---|-------------6---|-4--7------------|
E |-----------------|-----------------|-4---------------|-----7-----------|
   1 & 2 & 3 & 4 &  1 & 2 & 3 & 4 &  1 & 2 & 3 & 4 &  1 & 2 & 3 & 4 &


Chorus                                   2x
G ||-----------------|-----------------|-----------------|-----------------||
D ||-6---6---6-6-----|-----------------|-----------------|-----------------||
A ||-------6-----9---|-7---7---7-7-6---|-4---4---4-4-6---|-7---7---7-7-9---||
E ||-----------------|-------7---------|-------4---------|-------7---------||
   1 & 2 & 3 & 4 &  1 & 2 & 3 & 4 &  1 & 2 & 3 & 4 &  1 & 2 & 3 & 4 &

G |-4--4--4---------|-----------------|-4--4--4 --------|-----------------|
D |-----------------|-----------------|-----------------|-------------1-/-|
A |-----------------|-2--2--2---------|-----------------|-2--2--2--1------|
E |-----------------|-----------------|-----------------|-----------------|
   1 & 2 & 3 & 4 &  1 & 2 & 3 & 4 &  1 & 2 & 3 & 4 &  1 & 2 & 3 & 4 &
End
G |-----------------|-----------------|-----------------|-----------------|
D |-6---------------|-----------------|-----------------|-----------------|
A |---------------2-|-4-4--44-4-------|---------------2-|-4-4---4-4-------|
E |-----------------|---------------2-|-4---------------|---------------2-|
   1 & 2 & 3 & 4 &  1 & 2 & 3 & 4 &  1 & 2 & 3 & 4 &  1 & 2 & 3 & 4 &

G |-----------------|-----------------|-----------------|-----------------|
D |-----------------|-----------------|-----------------|-----------------|
A |---------------2-|-4-4---4-4-------|---------------2-|-4-4---4-4-------|
E |-4---------------|---------------2-|-4---------------|-----------0-1-2-|
   1 & 2 & 3 & 4 &  1 & 2 & 3 & 4 &  1 & 2 & 3 & 4 &  1 & 2 & 3 & 4 &

G |-----------------|-----------------|-----------------|-----------------|
D |-----------------|-----------------|-----------------|-----------------|
A |---------------2-|-4-4---4-4-------|---------------2-|-4-4---4-4-------|
E |-4---------------|---------------2-|-4---------------|---------------2-|
   1 & 2 & 3 & 4 &  1 & 2 & 3 & 4 &  1 & 2 & 3 & 4 &  1 & 2 & 3 & 4 &

Fade out
G |-----------------|-----------------|-----------------|-----------------|
D |-----------------|-----------------|-----------------|-----------------|
A |---------------2-|-4-4---4-4-------|---------------2-|-4-4---4-4-------|
E |-4---------------|---------------2-|-4---------------|---------------2-|
   1 & 2 & 3 & 4 &  1 & 2 & 3 & 4 &  1 & 2 & 3 & 4 &  1 & 2 & 3 & 4 &
ⓘ Bass guitar tab for 'Dreadlock Holiday' by 10cc, a rock band formed in 1972 from Manchester, UK. They are no longer active. 10cc is known for their cheerful rock/pop music.

Almost there ...

Sign in to get your own page with links to favourite songs and more. You are just one click away...

Login with Facebook Login with Google