Log in

One click and you are in

Login with Facebook Login with Google

Why sign up and log in

Guitar Tabs Explorer
10000 Maniacs bass tabs for Trouble me

Bass tabs

Tuning: Drop D


🏷Legend:
r = rest
()= sustained note

INTRO (x2):

G |-----------------|-----------------|
D |-----------------|-----------------|
A |-2---r-----------|-----------------|
D |---------5---r-0-|(0)--------------|
  1 & 2 & 3 & 4 &  1 & 2 & 3 & 4 &


VERSE 1 (x4):

G |-----------------|-----------------|
D |-----------------|-----------------|
A |-2---r-----------|-----------------|
D |---------5---r-0-|(0)--------------|
  1 & 2 & 3 & 4 &  1 & 2 & 3 & 4 &


CHORUS 1:

G |-----------------|-----------------|-----------------|-----------------|
D |-----------------|-----------------|-----------------|-----------------|
A |-----------------|-----------------|-----------------|-----------------|
D |-5---------------|-0---------------|-2-----------4-5-|-7---------------|
  1 & 2 & 3 & 4 &  1 & 2 & 3 & 4 &  1 & 2 & 3 & 4 &  1 & 2 & 3 & 4 &

           6/4            4/4
G |-----------------|-------------------------|-----------------|
D |-----------------|-------------------------|-----------------|
A |-----------------|-5-------2---------------|-----------------|
D |-5-------7-------|-------------------------|-5---r---7---r---|
  1 & 2 & 3 & 4 &  1 & 2 & 3 & 4 & 5 & 6 &  1 & 2 & 3 & 4 &


VERSE 2 (x8):

G |-----------------|-----------------|
D |-----------------|-----------------|
A |-2---r-----------|-----------------|
D |---------5---r-0-|(0)--------------|
  1 & 2 & 3 & 4 &  1 & 2 & 3 & 4 &


CHORUS 2:

G |-----------------|-----------------|-----------------|-----------------|
D |-----------------|-----------------|-----------------|-----------------|
A |-----------------|-----------------|-----------------|-----------------|
D |-5---------------|-0---------------|-2-----------4-5-|-7---------------|
  1 & 2 & 3 & 4 &  1 & 2 & 3 & 4 &  1 & 2 & 3 & 4 &  1 & 2 & 3 & 4 &

           6/4            4/4
G |-----------------|-------------------------|-----------------|
D |-----------------|-------------------------|-----------------|
A |-----------------|-5-------2---------------|-----------------|
D |-5-------7-------|-------------------------|-5---r---7---r---|
  1 & 2 & 3 & 4 &  1 & 2 & 3 & 4 & 5 & 6 &  1 & 2 & 3 & 4 &


VERSE 3 (x8):

G |-----------------|-----------------|
D |-----------------|-----------------|
A |-2---r-----------|-----------------|
D |---------5---r-0-|(0)--------------|
  1 & 2 & 3 & 4 &  1 & 2 & 3 & 4 &


BRIDGE (x2):

G |-----------------|-----------------|-----------------|-----------------|
D |-----------------|-----------------|-----------------|-----------------|
A |-----------------|-----------------|-----------------|-----------------|
D |-7---------------|(7)--------------|-5---------------|(5)--------------|
  1 & 2 & 3 & 4 &  1 & 2 & 3 & 4 &  1 & 2 & 3 & 4 &  1 & 2 & 3 & 4 &


PRE-VERSE (x2):

G |-----------------|-----------------|
D |-----------------|-----------------|
A |-2---r-----------|-----------------|
D |---------5---r-0-|(0)--------------|
  1 & 2 & 3 & 4 &  1 & 2 & 3 & 4 &


VERSE 4 (x6):

G |-----------------|-----------------|
D |-----------------|-----------------|
A |-2---r-----------|-----------------|
D |---------5---r-0-|(0)--------------|
  1 & 2 & 3 & 4 &  1 & 2 & 3 & 4 &


OUT-CHORUS:

G |-----------------|-----------------|-----------------|-----------------|
D |-----------------|-----------------|-----------------|-----------------|
A |-----------------|-----------------|-----------------|-----------------|
D |-5---------------|-0---------------|-2-----------4-5-|-7---------------|
  1 & 2 & 3 & 4 &  1 & 2 & 3 & 4 &  1 & 2 & 3 & 4 &  1 & 2 & 3 & 4 &

           6/4            4/4        (Let ring)
G |-----------------|-------------------------|-----------------|-----------------|
D |-----------------|-------------------------|-----------------|-----------------|
A |-----------------|-5-------2---------------|-----------------|-5---------------|
D |-5-------7-------|-------------------------|-5---r---7---r---|-----------------|
  1 & 2 & 3 & 4 &  1 & 2 & 3 & 4 & 5 & 6 &  1 & 2 & 3 & 4 &  1 & 2 & 3 & 4 &

Follow along with the song:

Almost there ...

Sign in to get your own page with links to favourite songs and more. You are just one click away...

Login with Facebook Login with Google