Log in

One click and you are in

Login with Facebook Login with Google

Why sign up and log in

Guitar Tabs Explorer
10000 Maniacs bass tabs for Noahs dove

Bass tabs

  • Tuning: Standard tuning
  • Difficulty: Beginner
-------------------------------------------------------------------
             Artist - 10,000 Maniacs
             *************************
               Song - Noah´s Dove
              ********************
             Album - Our Time in Eden
             **************************
              Tabbed By - Ayreon77
             **********************
-------------------------------------------------------------------

Tuning = Standard


INTRO
G|---------------------------|------------|-----------------------------------|
D|-7--7-7-7-7-7--7-7-7--7--7-|-7--7-7-7-7-|-----------------------------------|
A|---------------------------|------------|-7--7--7-7--7-8---8-7-5------------|
E|---------------------------|------------|------------------------8--8-8-8-7-|


G|--------------|-------------------------------------|
D|-7--7-7-7-7-9-|-------------------------------------|
A|--------------|-7--7-7-7-5-7-8--8-8-7-5-7-----------|
E|--------------|---------------------------8--8--8-7-|

00:22
G|----------------------|----------------------|
D|----------------------|----------------------|
A|-5--5-5-5--7----------|-5--5-5-5--7----------|
E|-------------5--5-5-5-|-------------3--3-3-3-|


-------------------------------
00:31

VERSE 1
********
G|-----------h--|-----------------------------------------|
D|-7--7-7-7-7-9-|-----------------------------------------|
A|--------------|-7--7-7-7-5-7-8--8-8-7-5-7---------------|
E|--------------|---------------------------8--8-10-8-7-8-|

G|--------------|-------------------------------------|
D|-7--7-7-7-7-9-|-------------------------------------|
A|--------------|-7--7-7-7-5-7-8--8-8-7-5-7-----------|
E|--------------|---------------------------8--8--8-7-|


G|----------------------|----------------------|
D|----------------------|----------------------|
A|-5--5-5-5--7----------|-5--5-5-5--7----------|
E|-------------5--5-5-5-|-------------3--3-3-3-|


-------------------------------
00:57

VERSE 2
********
G|----------h--|-----------------------------------------|
D|-7--7-7--7-9-|-----------------------------------------|
A|-------------|-7--7-7-7-5-7-8--8-8-7-5-7---------------|
E|-------------|---------------------------8--8-10-8-7-8-|


G|-----------h--|------------------------------------|
D|-7--7-7-7-7-9-|------------------------------------|
A|--------------|-7--7--7-7--7-8--8-8-7-5------------|
E|--------------|-------------------------8--8-8-8-7-|


G|----------------------|--------------------------------|
D|----------------------|--------------------------------|
A|-5--5-5-5--7----------|-5--5-5-5--7--------------------|
E|-------------5--5-5-5-|-------------3--3-3-3--3--3-3-3-|


-------------------------------
01:25

CHORUS
*******
G|---------|-----------|-----------|-----------|-----------|-----------|-----------|-----------|-----------|
D|---------|--------h--|-----------|-----------|-----------|--------h--|-----------|--------h--|-----------|
A|-3--3--3-|-5--5--5-7-|-----------|-----------|-3--3--3-3-|-5--5--5-7-|-----------|-5--5--5-7-|-----------|
E|---------|-----------|-5--5--5-5-|-3--3--3-3-|-----------|-----------|-5--5--5-5-|-----------|-5--5--5-5-|


G|--------------------|
D|--------------------|
A|-5--5-3-------------|
E|--------5-3--3--3-3-|


-------------------------------
01:49

VERSE 3
********
G|----------h--|-----------------------------------------|
D|-7--7-7--7-9-|-----------------------------------------|
A|-------------|-7--7-7-7-5-7-8--8-8-7-5-7---------------|
E|-------------|---------------------------8--8-10-8-7-8-|


G|-----------h--|------------------------------------|
D|-7--7-7-7-7-9-|------------------------------------|
A|--------------|-7--7--7-7--7-8--8-8-7-5------------|
E|--------------|-------------------------8--8-8-8-7-|


G|----------------------|--------------------------------|
D|----------------------|--------------------------------|
A|-5--5-5-5--7----------|-5--5-5-5--7--------------------|
E|-------------5--5-5-5-|-------------3--3-3-3--3--3-3-3-|


-------------------------------
02:17

CHORUS
*******
G|---------|-----------|-----------|-----------|-----------|-----------|-----------|-----------|-----------|
D|---------|--------h--|-----------|-----------|-----------|--------h--|-----------|--------h--|-----------|
A|-3--3--3-|-5--5--5-7-|-----------|-----------|-3--3--3-3-|-5--5--5-7-|-----------|-5--5--5-7-|-----------|
E|---------|-----------|-5--5--5-5-|-3--3--3-3-|-----------|-----------|-5--5--5-5-|-----------|-5--5--5-5-|


G|-------------------------|--------------------------|----------------------------------------|
D|-------------------------|--------------------------|----------------------------------------|
A|-5--5-5-3----------------|--------------------------|-3--3-----------------------------------|
E|----------5--3--3---3--3-|-5--5--0~~~~-0-0---0-3--3-|-------3-5--5-5-5-5-5-5-5-5-5-5-5-5-5-5-|


-------------------------------
02:58

VERSE 4
********
G|----------h--|-----------------------------------------|
D|-7--7-7--7-9-|-----------------------------------------|
A|-------------|-7--7-7-7-5-7-8--8-8-7-5-7---------------|
E|-------------|---------------------------8--8-10-8-7-8-|


G|-----------h--|------------------------------------|
D|-7--7-7-7-7-9-|------------------------------------|
A|--------------|-7--7--7-7--7-8--8-8-7-5------------|
E|--------------|-------------------------8--8-8-8-7-|


G|----------------------|--------------------------------|
D|----------------------|--------------------------------|
A|-5--5-5-5--7----------|-5--5-5-5--7--------------------|
E|-------------5--5-5-5-|-------------3--3-3-3--3--3-3-3-|


-------------------------------
03:26

CHORUS
*******
G|---------|-----------|-----------|-----------|-----------|-----------|-----------|-----------|-----------|
D|---------|--------h--|-----------|-----------|-----------|--------h--|-----------|--------h--|-----------|
A|-3--3--3-|-5--5--5-7-|-----------|-----------|-3--3--3-3-|-5--5--5-7-|-----------|-5--5--5-7-|-----------|
E|---------|-----------|-5--5--5-5-|-3--3--3-3-|-----------|-----------|-5--5--5-5-|-----------|-5--5--5-5-|


G|---------------------|
D|---------------------|
A|-5--5-3--------------|
E|--------5-3--3--3--3-|

03:52

CHORUS
*******
G|---------|-----------|-----------|-----------|-----------|-----------|-----------|-----------|-----------|
D|---------|--------h--|-----------|-----------|-----------|--------h--|-----------|--------h--|-----------|
A|-3--3--3-|-5--5--5-7-|-----------|-----------|-3--3--3-3-|-5--5--5-7-|-----------|-5--5--5-7-|-----------|
E|---------|-----------|-5--5--5-5-|-3--3--3-3-|-----------|-----------|-5--5--5-5-|-----------|-5--5--5-5-|


G|--------------------------------------------|
D|--------------------------------------------|
A|-5--5-5-3-----------------------------------|
E|----------5--3--3---3--3---3--3---3---3~~~~-|


ENJOY..........

Noahs Dove bass tab

10000 Maniacs bass tabs for Noahs dove "Noah´s Dove" is the opening track of American alternative rock band 10000 Maniac´s fifth studio album, "Our Time In Eden". "Noah´s Dove" and the album was released in 1992. "Noah´s Dove" is written by the band´s singer Natalie Merchant. Bass guitar is played by Steven Gustafson.

Almost there ...

Sign in to get your own page with links to favourite songs and more. You are just one click away...

Login with Facebook Login with Google